Oops, an error
Loading. Please wait.

Maldición tab

by Pez
38 views 1 this week
no commentswrite comment
1 2 3 4 5
3 more votes to show rating
add to favorites
×
Save as Personal and add changes to this tab that will be seen only by you. Learn more ›
×
You can save this tab as Personal to edit and correct it or add notes. All changes will be seen only by you. Learn more »
launch autoscroll
font size
0
reset
how to read this tab
guitar tuner
edit
Autoscroll
slow
fast
+/-
esc
set tempo
stop
--------0---------------0--------
---------------------------------
-----7------7-------6-------6----
---5--5---5---5---7---7---7---7--    RIFF
-0--------------0----------------
---------------------------------


(sobre riff)
¿Cuándo va a parar?

F5   F°      G5     F5   D#5 (Bb5 B5 C5)
Cae desde el cielo maldición             para mí.


-----------L-L------------------V---
----------5-6-5-3-5-3---------------  RIFF 2
----------5-6-5-3-5-3-----------5---
-----5----5-6-5-3-5-3------5--------   L=ligado
-----5---------------------5--------   V=vibrato
-3-3---3---------------3-3---3------


G5         D#5-D5            G5
 Cuando te agarres de la almohada,
      D#5-D5       G5
como que no queda nada
     D#5-D5     C5     Bb5
y eso es lo último que hay.
G5         D#5-D5            G5
 Cuando te pesen más las piernas,
         D#5-D5       G5
cuando todo es una mierda
              D#5-D5     C5           Bb5
y no hay respuestas para lo que preguntás y es...


(sobre riff)
¿Cuándo va a parar?

F5   F°      G5     F5   D#5 (Bb5 B5 C5)
Cae desde el cielo maldición             para mí.

G5         D#5-D5    G5          D#5-D5
 Y es tan difícil, ay, se hace difícil
G5         D#5-D5     C5               Bb5
 sostener algo cuando todo lo demás se cae.
G5            D#5-D5       G5
 Pero un guerrero siempre avanza
        D#5-D5     G5
 y la punta de su lanza
            D#5-D5        C5       Bb5
brilla al sol mientras no deja de pensar en...


(sobre riff)
¿Cuándo va a parar?

F5   F°      G5     F5   D#5 (Bb5 B5 C5)
Cae desde el cielo maldición             para mí.


                                                    X2
--------------------------------------------------------=
--------------------------------------------------------=
---------------5-4-3----------------------5-4-3-------5-=
---5-3-5-------------5-4-3----5-3-5-------------5-4-3---=
---------5-4-3----------------------5-4-3---------------=
-3--------------------------3---------------------------=


----------------------------------------------------------
----------------------------------------------------------
----------------9-8-7----------------------9-8-7--------9-
----9-7-9-------------9-8-7-----9-7-9-------------9-8-7---
----------9-8-7-----------------------9-8-7---------------
--7---------------------------7---------------------------


---------------------------------------------------------------------
---------------------------------------------------------------------
---------------9-8-7-----------------------9-8-7-------------9-8-7---
---9-7-9-------------9-8-7-----9-7-9-------------9-8-7---------------
---------9-8-7-----------------------9-8-7-------------9-8-7---------
-7---------------------------7---------------------------------------

            
            
Suggest correction
Creating personal tab
Creating personal tab
You can edit any tab online and save it as your Personal.

You can edit, replace or remove any tab part or add personal notes – all changes will be seen only by you.

Personal tabs can be accessed anytime from any device, even offline.
Learn more »
Give kudos to tab author, rate the tab!
1 2 3 4 5
comments
print report bad tab
guest
Wanna post a correction for this tab? Suggest correction