Oops, an error
Loading. Please wait.

Y Por Ahí Escuche Decir Que Aún Existe Ese Lugar tab

version 2
version 2

Whole song

by Pez
5 views 1 this week
no commentswrite comment
1 2 3 4 5
3 more votes to show rating
add to favorites
×
Save as Personal and add changes to this tab that will be seen only by you. Learn more ›
×
You can save this tab as Personal to edit and correct it or add notes. All changes will be seen only by you. Learn more »
launch autoscroll
font size
0
reset
how to read this tab
guitar tuner
edit
Autoscroll
slow
fast
+/-
esc
set tempo
stop
Esta es una modificacion a la transcripcion de Sr. Zorrino, que se tomo
el trabajo de subir todo el cd. Lo unico que le cambie fue el riff
principal y un fill, pero me parecio importante subirlo porque
como va bastante rapido es bastante complicadodesacar bien.


Intro

|------------------------------------------------------|
|------------------------------------------------------|
|------3-------------1-2-1-------3-1---------4-2-------|
|--5---3----------1-3------3-1-------3-1--------4-2----|
|--5---1-------1-3-------------3---------3-1-------4-2-|
|--3--------1-4----------------------------------------|

(Intro x3)

G                                          C-C#
si hay un santuario pronto debo encontrarlo
G                                          C-C#
o descubrir un lugar de poder
G                                          C-C#
porque parece que de lo contrario...

Fill 1

|-------------------6---|
|---------6--5-8--8-----|
|---3---7---------------|
|-5---------------------|
|-----------------------|
|-----------------------|

todos los libros sobre la era de acuario
por cierto, el calendario maya también
todo nos habla de unos profundos cambios

(Fill 1)
(Intro x3)

G - F
 C
     y por ahí escuché decir que aún existe ese lugar
  D#           D               ( o G  F# en segunda cuerda)
donde todavía hay humanos

(Intro x3)
(Fill 2)

Fill 2
|---------------------------------------|
|----------------------6-8--------------|
|------------------5-7------------------|
|---------3-5--5-8------------------3-6-|
|---1-3-5---------------------1-3-5-----|
|-3-------------------------3-----------|

            
            
Suggest correction
Creating personal tab
Creating personal tab
You can edit any tab online and save it as your Personal.

You can edit, replace or remove any tab part or add personal notes – all changes will be seen only by you.

Personal tabs can be accessed anytime from any device, even offline.
Learn more »
Give kudos to tab author, rate the tab!
1 2 3 4 5
comments
print report bad tab
guest
Wanna post a correction for this tab? Suggest correction