Oops, an error
Loading. Please wait.

Monseñor tab

9 views 1 this week
no commentswrite comment
1 2 3 4 5
3 more votes to show rating
add to favorites
×
Save as Personal and add changes to this tab that will be seen only by you. Learn more ›
×
You can save this tab as Personal to edit and correct it or add notes. All changes will be seen only by you. Learn more »
launch autoscroll
font size
0
reset
how to read this tab
guitar tuner
edit
Autoscroll
slow
fast
+/-
esc
set tempo
stop
Aqui les va esta cancion...

INTRO:(4 veces y en la ultima jueguen con el A)
       D          D/F#          G                A
/--------2--------------2---------------3----------------------/
/------3---3----------3---3-----------3---3-----------2--------/
/----2-------2------2-------2-------0-------0-------2----2-----/
/--0----------------------------------------------2--------2---/
/-----------------------------------------------0--------------/
/----------------2--------------3------------------------------/


Verso
/--------2--------------2---------------3----------------------/
/------3---3----------3---3-----------3---3-----------2--------/
/----2-------2------2-------2-------0-------0-------2----2-----/
/--0----------------------------------------------2--------2---/
/-----------------------------------------------0--------------/
/----------------2--------------3------------------------------/


Y recordar que de niño jugaba en el corredor...
/--------0--------------0---------------0----------------------/
/------3---3----------3---3-----------3---3-----------2--------/
/----2-------2------2-------2-------2-------2-------2----2-----/
/--0----------------------------------------------2--------2---/
/-----------------3--------------2--------------0--------------/
/--------------------------------------------------------------/


D       G                 A
Y se organizaron en una lucha que les dio fuerza
D       G                        A
Para dar su sangre y llevar al cielo una vena abierta


Pero los muertos salieron al sol...
/---------3---------------3-----------------2-----3-----2-------/
/-------3---3-----------3---3-------------3---3-----3-----3-----/
/-----0-------0-------0-------0---------2-------2-----2-----2---/
/-------------------------------------0-------------------------/
/--3---------------2--------------------------------------------/
/---------------------------------------------------------------/


D              D/F#       G                   A
Pero las luces grandes tambien estorban a los ojos...


Y decidieron matarlo para callarle la voz...
/--------0--------------0---------------0----------------------/
/------3---3----------3---3-----------3---3-----------2--------/
/----2-------2------2-------2-------2-------2-------2----2-----/
/--0----------------------------------------------2--------2---/
/-----------------3--------------2--------------0--------------/
/--------------------------------------------------------------/


G      D        Em               A
Y asi jamas se apagara su voz eterna


Y le dedicaremos una estrellita y una cancion...
/--------0--------------0---------------0----------------------/
/------3---3----------3---3-----------3---3-----------2--------/
/----2-------2------2-------2-------2-------2-------2----2-----/
/--0----------------------------------------------2--------2---/
/-----------------3--------------2--------------0--------------/
/--------------------------------------------------------------/


Con esos arreglos le dan a toda la cancion! Es facil y buenisima.
Suerte y quien se sepa algo de pez luna pues ya estuviera!
En lo que saque mas las voy poniendo

            
            
Suggest correction
Creating personal tab
Creating personal tab
You can edit any tab online and save it as your Personal.

You can edit, replace or remove any tab part or add personal notes – all changes will be seen only by you.

Personal tabs can be accessed anytime from any device, even offline.
Learn more »
Give kudos to tab author, rate the tab!
1 2 3 4 5
comments
print report bad tab
guest
Wanna post a correction for this tab? Suggest correction