Oops, an error
Loading. Please wait.

Se Le Cayó El Jabón tab

50 views 1 this week
no commentswrite comment
1 2 3 4 5
3 more votes to show rating
add to favorites
×
Save as Personal and add changes to this tab that will be seen only by you. Learn more ›
×
You can save this tab as Personal to edit and correct it or add notes. All changes will be seen only by you. Learn more »
launch autoscroll
font size
0
reset
how to read this tab
guitar tuner
edit
Autoscroll
slow
fast
+/-
esc
set tempo
stop
 _________________________________________________________________
|                                                                 |
|                          L E E  E S T O                         |
|_________________________________________________________________|
|                                                                 |
| Antes de copiar esta transcripción a un archivo de texto, debes |
| seleccionar la fuente tipográfica COURIER NEW o LUCIDA CONSOLE, |
| así, no se te moverán los acordes ni los punteos de su posición |
| original y podrás tocar la canción correctamente.               |
|_________________________________________________________________|

        *************************************************
        ** ··········``SE LE CAYÓ EL JABÓN´´·········· **
        ** ···············(LOS PICANTES)·············· **
        ** ··········································· **
        ** ········(Tono Original: DO Mayor )········· **
        ** ···· (Transcrita por Rodrigo González) ···· **
        *************************************************


=INTRO1= (Trompeta)

E------12-10-------12-10-------12-10------------
G----13-----13---13-----13---13-----13---13-12--
B--12----------12----------12----------12-------
D-----------------------------------------------¡se le cayó el jabón!
A-----------------------------------------------
E-----------------------------------------------¡presente mi general!

E------12-10-------12-10-------12-10------------
G----13-----13---13-----13---13-----13--12-13---
B--12----------12----------12-------------------
D-----------------------------------------------¡se le cayó el jabón!
A-----------------------------------------------
E-----------------------------------------------¡aaay!

=INTRO2= (Instrumental)
  DO            FA       SOL              DO
E------------0-0-1-------¡se le cayó el jabón!--
B----1-1-1-1------------------------------------
G-----------------------------------------------
D-----------------------------------------------
A-----------------------------------------------
E-----------------------------------------------

  DO            FA       SOL              DO
E------------0-0-1-------¡se le cayó el jabón!--
B----1-1-1-1------------------------------------
G-----------------------------------------------
D-----------------------------------------------
A-----------------------------------------------
E-----------------------------------------------

    (¡esta es la del jabón gringo...!)
  DO      SOL     LAm        SOL      LAm
E---------------------------------------------
B--1-1-1-1-0-0-0-0------------0--1-1-0-1-0----
G------------------2--2-2---2--------------2--
D---------------------------------------------
A---------------------------------------------
E---------------------------------------------

  DO      SOL     LAm         SOL         DO       FA-SOL
E--------------------------------------0-------------------
B--1-1-1-1-0-0-0-0-------------0-0-0-0---3-1------------0--
G------------------2--2-2----2--------------------0-0-2----
D----------------------------------------------------------
A----------------------------------------------------------
E----------------------------------------------------------

=1ªParte=
      DO            FA           SOL             DO
DESDE NIÑO QUE LO CRIARON BIEN MACHITO PA` SUS HUEÁS...
    DO                  FA          SOL            DO
AGARRARSE A COMBO EN L`OCICO Y EL DOMINGO IR A CHUTEAR,
  DO7                 FA            SOL         DO
TOCARLE EL POTO A LAS MINA`, EN EL LICEO APROVECHAR
       DO7           FA        SOL            DO
DE CUARTEARSE POR EL BAÑO Y DESPUÉS IRSE A PAJEAR...

DO                 FA           SOL            DO
LUEGO TERMINÓ EL COLEGIO Y AL SERVICIO FUE A PARAR,
         DO              FA         SOL       DO
NI CON LICENCIA DE LA CORDERO ÉL SE LO PUDO SACAR...
      DO7              FA          SOL           DO
LO MANDARON CAGANDO PA` ENTRO Y EL NORTE IR A CUIDAR,
       DO            FA                 SOL         DO
TODO HABÍA SALIDO PERFECTO HASTA QUE SE TUVO QUE DUCHAR...

=CORO=
DO              FA               SOL            DO
SE LE CAYÓ EL JABÓN... UN SOLDAO RAZO SE LO CHANTÓ,
DO              FA                SOL        LAm
SE LE CAYÓ EL JABÓN... SOY UN CONSCRIPTO MARICÓN...
LAm             FA              SOL           LAm
SE LE CAYÓ EL JABÓN... ¡¿Y QUE DIRÁ... MI GENERAL?!
DO              FA             SOL              DO
SE LE CAYÓ EL JABÓN... ¡¿ARREPENTIDO?!  NO PASA NA`...

*Se repite =INTRO2=*  ``nunca te agachí` hueón...
                        frente a tanto pelao caliente´´

=2ªParte=
        DO             FA           SOL          DO
PERO EN VISTA Y CONSIDERANDO, TODO NO ESTABA TAN MAL,
      DO         FA               SOL           DO
ÉL SE FUE ACOSTUMBRANDO QUE SE LO CHANTEN POR ATRÁS...
     DO7                FA        SOL          DO
Y SU CHIVO YA ESTABA EN BOCA DE TODITO EL BATALLÓN,
         DO7           FA             SOL              DO
Y AUNQUE SE VEÍA MUY MACHITO, TODOS SABÍAN QUE ERA MARICÓN...

      DO           FA        SOL        DO
Y DE VUELTA DEL SERVICIO A SU CASA REGRESÓ,
     DO            FA         SOL       DO
MUY ATENTO Y MUY SUMISO, SU PADRE, LO NOTÓ...
      DO                FA           SOL        DO
¡HIJO MÍO! ¡¿QUÉ TE HAN HECHO?! ¿ALGO RARO TE PASÓ?
      DO           FA               SOL          DO
¡AY PAPITO.. ES MI VIDA! ¿YA? ¡UN MILAGRO... SUCEDIÓ!

=CORO=
DO              FA               SOL            DO
SE LE CAYÓ EL JABÓN... UN SOLDAO RAZO SE LO CHANTÓ,
DO              FA                SOL        LAm
SE LE CAYÓ EL JABÓN... SOY UN CONSCRIPTO MARICÓN...
LAm             FA              SOL           LAm
SE LE CAYÓ EL JABÓN... ¡¿Y QUE DIRÁ... MI GENERAL?!
LAm     DO      FA             SOL              DO
SE LE CAYÓ EL JABÓN... ¡¿ARREPENTIDO?!  NO PASA NA`...

=CORO= (Sólo con la percusión, sin instrumentos)
DO              FA               SOL            DO
SE LE CAYÓ EL JABÓN... UN SOLDAO RAZO SE LO CHANTÓ,
DO              FA                SOL        LAm
SE LE CAYÓ EL JABÓN... SOY UN CONSCRIPTO MARICÓN...

=CORO= (entran los instrumentos)
LAm             FA              SOL           DO
SE LE CAYÓ EL JABÓN... ¡¿Y QUE DIRÁ... MI GENERAL?!
LAm     DO      FA             SOL              DO
SE LE CAYÓ EL JABÓN... ¡¿ARREPENTIDO?!  NO PASA NA`...

=FINAL=
     DO    FA      SOL   DO      DO    FA      SOL   DO
E-------------- ------------- ------------- -------------
B-------------- ------------- ------------- -------------
G-------------- ------------- ------------- -------------
D-----2-2-0---- ------------- ----2-2-0---- -------------
A---0-------3-- ----3-3-2-0-- --0-------3-- ----3-3-2-0--
E-------------- --3---------- ------------- --3----------

     DO    FA      SOL   LAm     LAm   FA      SOL   DO
E-----0-0------ ------------- ----0-0------ -------------
B---------3-1-- ----1-1-0---- --------3-1-- ----1-1-0-1--
G---2---------- --0-------2-- --2---------- --0----------
D-------------- ------------- ------------- -------------
A-------------- ------------- ------------- -------------
E-------------- ------------- ------------- -------------


E------0-----------0-----------0------------
G----1---3-1-----1---3-1-----1---3-1--0-1---
B--0-----------0-----------0----------------
D-------------------------------------------
A-------------------------------------------
E-------------------------------------------
 _ _ _ _ _ _ _ _ _ _ _ _ _ _ _ _ _ _ _ _ _ _ _ _ _ _ _ _ _ _ _ _ _
|*|*|*|*|*|*|*|*|*|*|*|*|*|*|*| FIN |*|*|*|*|*|*|*|*|*|*|*|*|*|*|*|
¨¨¨¨¨¨¨¨¨¨¨¨¨¨¨¨¨¨¨¨¨¨¨¨¨¨¨¨¨¨¨¨¨¨¨¨¨¨¨¨¨¨¨¨¨¨¨¨¨¨¨¨¨¨¨¨¨¨¨¨¨¨¨¨¨¨¨
  _________________________________________________________________
 |                                                                 |
 | Aquí te van algunas indicaciones básicas para tocar la canción: |
 |_________________________________________________________________|
 |                                                                 |
 | Para que el tema suene bien, te recomiendo ejecutar los acordes |
 | y los cambios de acorde en el mismo momento en que aparecen,por |
 | eso logré que  la ubicación de cada acorde  sea la precisa, tal |
 | como puse los acordes  sobre cada sílaba tonal, de cada verso y |
 | sobre cada punteo. Así, te será menos difícil  ubicar el acento |
 | musical y  además, obtendrás  una melodía similar a la del tema |
 | del popular grupo chileno Los Picantes.                         |
 |_________________________________________________________________|
  _______________________ ______________________________
 |                       |                              |
 |       C L A V E       | CUERDAS de la GUITARRA:      |
 | Universal - Americana |                              |
 |                       | E---> es Mi AGUDO (1 cuerda) |
 | DO  =============== C | B---> es Si       (2 cuerda) |
 | RE  =============== D | G---> es Sol      (3 cuerda) |
 | MI  =============== E | D---> es Re       (4 cuerda) |
 | FA  =============== F | A---> es La       (5 cuerda) |
 | Sol =============== G | E---> es Mi GRAVE (6 cuerda) |
 | LA  =============== A |                              |
 | SI  =============== B |                              |
 |_______________________|______________________________|

 (Acorde)     (Cuerdas)
    |        E A D G B E  Los números corresponden al
    |        | | | | | |  traste de la guitarra donde
    |        | | | | | |  se pulsa la cuerda señalada,
    |        | | | | | |  la letra X significa que no
    |        | | | | | |  se pulsa la cuerda indicada.
    |        | | | | | |
    DO    :  X 3 2 0 1 0  ( Do Mayor )
    DO7   :  X 3 2 3 1 0  ( Do Mayor 7 )
    FA    :  1 3 3 2 1 1  ( Fa Mayor )
    SOL   :  3 2 0 0 0 3  ( Sol Mayor )
    SOL   :  3 5 5 4 3 3  ( Sol Mayor con cejillo )
    LAm   :  X 0 2 2 1 0  ( La menor )
    LAm   :  5 7 7 5 5 5  ( La menor con cejillo )
    LAm7  :  X 0 2 0 1 0  ( La menor 7 )

JULIO, 2007                                                 ...RODRIGO
=======================
====================baladistacancionero@
Suggest correction
Creating personal tab
Creating personal tab
You can edit any tab online and save it as your Personal.

You can edit, replace or remove any tab part or add personal notes – all changes will be seen only by you.

Personal tabs can be accessed anytime from any device, even offline.
Learn more »
Give kudos to tab author, rate the tab!
1 2 3 4 5
comments
print report bad tab
guest
Wanna post a correction for this tab? Suggest correction