Oops, an error
Loading. Please wait.

Fervor De Los Sueños tab

by Pier
43 views 1 this week
no commentswrite comment
1 2 3 4 5
3 more votes to show rating
add to favorites
×
Save as Personal and add changes to this tab that will be seen only by you. Learn more ›
×
You can save this tab as Personal to edit and correct it or add notes. All changes will be seen only by you. Learn more »
launch autoscroll
font size
0
reset
how to read this tab
guitar tuner
edit
Autoscroll
slow
fast
+/-
esc
set tempo
stop
Riff 1 de INTRO:

e---------------------------------
B---------------------------------
G--------------------------------- x4
D----7--5-7-----7--5--------------
A-0---------0--------7-5-3-0------
E---------------------------------

Riff 2 de INTRO:

e-------------------------------------------------------------
B----13-12-10~------13-12-10--12-13--10-12--------------------
G-12-------------12-------------------------12-9~--9h11h12-9~-
D-------------------------------------------------------------
A-------------------------------------------------------------
E-------------------------------------------------------------

e------------------------------------------------------17------
B----12-13-15~-----13-15-17~--15-13--12-12-10~-14-14p16-17-15--
G-12------------12---------------------------------------------
D--------------------------------------------------------------
A--------------------------------------------------------------
E--------------------------------------------------------------

VERSO: Riff 1 de INTRO

Qué alegría al ver, que tus ojos, han de brillar (Riff 1)
a la espera,
Audaz salto lleno de gloria, empuñando con fervor (Riff 1)
viejas banderas. (Riff 2)

Dm5                C#m5          Cm5         Bm
Fiel compadre del lujo de ser libre de verdad
Am5                   G5
marcados sin titubear
 B                       Am
presos de un mismo sueño.

RIFF 2 DE INTRO (x2)

Verso: Riff 1 de INTRO

Monigotes de profesión, relojeando con desazón (Riff 1)
viviendo del miedo.
Esperando ver, resbalar y trastabillar (Riff 1)
a las fieras. (Riff 2)

Dm5                C#m5          Cm5         Bm
Estrechando las manos con la angustia del dolor
Am5                   G5
sorteados a defraudar
 B                      Am
presos de un mismo sueño.

Riff 2 de INTRO (x2)
Termina en Riff 3

Dm                     Am
El corazón latiendo a toda velocidad
Dm            Am             (Riff 1)
y la ilusión como estandarte.

Dm                     Am
Mi corazón se aferra a gritos a tu ilusión
Dm                             (Riff 1)
las venas arden hasta quemarme, hasta quemarme

SOLO

Riff 1:

e------------------------
B----3-2-----3-2-----3-5-
G-3--4-3--3--4-3--3--4-6-
D-4-------4-------4------
A------------------------
E------------------------

Riff 2:

e---------------
B---------------
G---------------
D---------------
A---------------
E-7-9-10-12-----

Riff 3:

e-------------------------12-10----------
B-8-10v~--8-13-12-10-8~---------13-12-13-
G----------------------------------------
D----------------------------------------
A----------------------------------------
E----------------------------------------

Este tab de un hermoso tema de la gran banda pier,
se lo kiero dedicar a todo primer anio del colegio
guido spano.

Que la disfruten
Suggest correction
Creating personal tab
Creating personal tab
You can edit any tab online and save it as your Personal.

You can edit, replace or remove any tab part or add personal notes – all changes will be seen only by you.

Personal tabs can be accessed anytime from any device, even offline.
Learn more »
Give kudos to tab author, rate the tab!
1 2 3 4 5
comments
print report bad tab
guest
Wanna post a correction for this tab? Suggest correction