Oops, an error
Loading. Please wait.

Jauría Cocktail Rock chords

by Pier
17 views 1 this week
no commentswrite comment
1 2 3 4 5
3 more votes to show rating
add to favorites
×
Save as Personal and add changes to this tab that will be seen only by you. Learn more ›
×
You can save this tab as Personal to edit and correct it or add notes. All changes will be seen only by you. Learn more »
launch autoscroll
font size
0
reset
transpose
0
reset
display chords
guitar tuner
edit
Autoscroll
slow
fast
+/-
esc
set tempo
stop
Strumming
There is no strumming pattern for this song yet. and get +5 IQ
invente con la letra


   B      E     D  C#          B           E     D   C#
|--------------------------------------------------------|
|--------------------------------------------------------|
|-(4)---7/9----7-7-6-6--4x4x4x4x4x4x4x----7/9----7-7-6-6-|
|-(4)---7/9----7-7-6-6--4x4x4x4x4x4x4x----7/9----7-7-6-6-|
|-(2)---5/7----5-5-4-4--2x2x2x2x2x2x2x----5/7----5-5-4-4-|
|--------------------------------------------------------|
------------------------------------------------------------------------------------------------------
 B (e-d-c#)
Zona prohibida para todos los enamorados
ruedan las fichas que encegecen algo al jugador

tipos de cera con patente de mal humorados
------------------------------------------------------------------------------------------------------
 A                   E              F#             B
y en el fondo del cuarto una niña sintiendo dolor


|---------------------|
|---------------------|
|-2-2-----------4-4---|
|-2-2--2-2--4-4-4-4---|
|-0-0--2-2--4-4-2-2---|
|------0-0--2-2-------|

------------------------------------------------------------------------------------------------------
 B (E-D-C#)

pelan tarjeta los monarcas identificados
apretando las garras, preparados para triturar

espuma chorreando destiñiendo lujosos baberos

------------------------------------------------------------------------------------------------------
 A                   E              F#             B
y en el fondo del cuarto una niña exigiendo perdon

------------------------------------------------------------------------------------------------------
 B (E-D-C#)
|---------------------|
|---------------------|
|---7---7br-7h9--7----|
|-9--9v---------9-9v--|
|---------------------|
|---------------------|

------------------------------------------------------------------------------------------------------
 B (e-d-c#)

restos en filas se abalanzan sobre la carnada
juntan polenta los atletas de la soledad
brindan parcas que se juran no ser desparejas

------------------------------------------------------------------------------------------------------

 A                   E              F#             B
y en el cuarto del fondo una niña pidiendo calor

------------------------------------------------------------------------------------------------------

(C#)
|--(9)--9-11-(9)-9-11-11-9-11-11-9-11-11-11-(9b)----------------------------12-9---9---------------------------------------|
|--(9)--9-11-(9)-9-11-11-9-11-11-9-11-11-11-(9b)-------12br------12br------------12--12-9-12-9---9-------------------------|
|-------------------------------------------------11-13-----11-13------------------------------9---11-9-11-11-9------------|
|---------------------------------------------------------------------------------------------------------------(9V)-------|
|--------------------------------------------------------------------------------------------------------------------------|
|--------------------------------------------------------------------------------------------------------------------------|

------------------------------------------------------------------------------------------------------
 B (e-d-c#)

ay que amistosa es la gente aqui en este palacio
no descriminan las palabras del come pasto

pista gastada por piruetas poco elegantes

------------------------------------------------------------------------------------------------------
 A                   E              F#             B(e-D-C#)
y en el cuarto del fondo una niña gritando con vos
 A                   E              F#             B(e-D-C#)
y en el cuarto del fondo una niña gritando con vos
 A                   E              F#             B(e-D-C#)
y en el cuarto del fondo una niña gritando con vos

B(e-D-C#)x4  -B-
------------------------------------------------------------------------------------------------------

            
            
Suggest correction
Creating personal tab
Creating personal tab
You can edit any tab online and save it as your Personal.

You can edit, replace or remove any tab part or add personal notes – all changes will be seen only by you.

Personal tabs can be accessed anytime from any device, even offline.
Learn more »
Give kudos to tab author, rate the tab!
1 2 3 4 5
comments
print report bad tab
guest
Wanna post a correction for this tab? Suggest correction