Oops, an error
Loading. Please wait.

A Ver Cuándo tab

17 views 1 this week
no commentswrite comment
1 2 3 4 5
3 more votes to show rating
add to favorites
×
Save as Personal and add changes to this tab that will be seen only by you. Learn more ›
×
You can save this tab as Personal to edit and correct it or add notes. All changes will be seen only by you. Learn more »
launch autoscroll
font size
0
reset
how to read this tab
guitar tuner
edit
Autoscroll
slow
fast
+/-
esc
set tempo
stop
bueno les comento que aca esta bien hecho el riff del
tema a ver cuando, porque el chabon que lo hizo,
como que lo escribio para el .....espero que les
sirva, ademas tambien va el punteo

todo el tema va en Solm-Do

Riff 1

E---3--5h6h5------------------3--5h6h5-------
B----------------3--5h6h5-----------------5h6
G--------------------------------------------
D--------------------------------------------
A--------------------------------------------
E--------------------------------------------

ahora va el punteo que se manda por el medio


E----3-1---------3-4-5--(5)--5---12-10--5-----------
B---3-----5--3---3---------------11-----5h6--(6)(6)-
G--3------5--3---3---------------12-----5----------3
D---------------------------------------------------
A---------------------------------------------------
E---------------------------------------------------

despues el arreglo que se manda el gua gua es asi

B--5--5--

obviamente que tenes que pisar el pedal del gua-gua

bueno eso es todo, cualquier duda me mandan un mail a
pingon_mza@

AGUANTE LOS PIOJOS; Y MENDOZA

            
            
Suggest correction
Creating personal tab
Creating personal tab
You can edit any tab online and save it as your Personal.

You can edit, replace or remove any tab part or add personal notes – all changes will be seen only by you.

Personal tabs can be accessed anytime from any device, even offline.
Learn more »
Give kudos to tab author, rate the tab!
1 2 3 4 5
comments
print report bad tab
guest
Wanna post a correction for this tab? Suggest correction