Oops, an error
Loading. Please wait.

Civilización tab

95 views 1 this week
no commentswrite comment
1 2 3 4 5
3 more votes to show rating
add to favorites
×
Save as Personal and add changes to this tab that will be seen only by you. Learn more ›
×
You can save this tab as Personal to edit and correct it or add notes. All changes will be seen only by you. Learn more »
launch autoscroll
font size
0
reset
how to read this tab
guitar tuner
edit
Autoscroll
slow
fast
+/-
esc
set tempo
stop
Percusion:Chuchuchuchuchuchuchuchuchuchuchu (?)

Intro:
Guitarra Acustica:
      Am              Dm              C                 G
e|--5------5----|-5------5----|8---------8-----|7---------8--7----|--|
B|----5--5---5-5|---6--6---6-6|----8----8---8-8|---8---8----------|--|
G|------5-----5-|-----7-----7-|--------9-----9-|------7-----------|--|
D|--7--7---7----|-7--7---7----|10---10---10----|9---9-----7--7----|x2|
A|--------------|-------------|----------------|------------------|--|
E|--------------|-------------|----------------|------------------|--|
Teclado:
e|--------------|-------------|----------------|------------------|--|
b|-10--13---10--|-10---13--12-|---8---12----8--|8-10-5h8-0h5-0h3-0|--|
g|--------------|-------------|----------------|------------------|x2|
d|--------------|-------------|----------------|------------------|--|
a|--------------|-------------|----------------|------------------|--|
E|--------------|-------------|----------------|------------------|--|

(Entran en segunda vuelta)
Guitarra 1:
      Am              Dm              C                 G
e|--5--5--5--5--|--5--5--5--5-|---3--3--3--3---|---3--3---3--3----|--|
b|--5--5--5--5--|--6--6--6--6-|---5--5--5--5---|---3--3---3--3----|--|
g|--5--5--5--5--|--7--7--7--7-|---5--5--5--5---|---4--4---4--4----|--|
d|--7--7--7--7--|--7--7--7--7-|---5--5--5--5---|---5--5---5--5----|x2|
a|--7--7--7--7--|--5--5--5--5-|---3--3--3--3---|---5--5---5--5----|--|
E|--5--5--5--5--|-------------|----------------|------------------|--|
Bajo:
g|--------------|-------------|----------------|------------------|x2|
d|-----2----2---|--0----0-----|----------------|------0-----------|--|
a|--0-----0-----|----0----0---|---3----3-------|----------0-2-0---|--|
E|--------------|-------------|-----3-----3----|--3-------------3-|--|

Estrofa 1:
(Igual)
Am
Hay algo que está sonando
Dm
seguro que ya lo oías
C
la tierra está vibrando
G
con distinta melodía.

Am
Ni dioses locos de furia
Dm
ni demonios vengativos
C
ni naves extraterrestres
G
ni algún cometa perdido.

Am
La historia es mucho más clara
Dm
y tiene también sentido
C
la tierra se está quitando
G
de encima al peor enemigo.

Am
Vienen los cuatros jinetes
Dm
cabalgando vienen digo
C
agua, tierra, fuego y aire
G
vienen de tu propio ombligo.

Estribillo:
Igual excepto:
Guitarra 2:
    Am     Dm     C     G
e|12----|12----|12----|-----|
b|--13--|--13--|--13--|10/12|
g|----14|----12|----10|10/12|
d|------|------|------|-----|
a|------|------|------|-----|
E|------|------|------|-----|
Am               Dm
Oh oh oh oh,
 C                     G
cosas de la civilización.

Estrofa 2:
Que todo ya está montado
que millones de despidos
el camino es complicado
quizá como nunca ha sido.

Anoche soñé con Manu
y esta melodía cantaba
alguien encendía un asado
alguien de lejos llegaba.

Puente:
Guitarra 2:
(Hace estos fills)
   Am    Dm     C     G
e|-----|-/5--|-----|-----|
b|-----|-/6-6|--/5-|10/12|
g|--/5-|----7|--/5-|10/12|
d|--/7-|-----|-----|-----|
a|-----|-----|-----|-----|
E|-----|-----|-----|-----|
  Am
Y si viene un río gris
         Dm
que separa al mundo en dos
         C                   G
quisiera quedar del mismo lado

nena que vos

Estribillo:
(Igual)
Am               Dm
Oh oh oh oh,
 C                     G
cosas de la civilización.
Puente:
(Igual, pero sin bajo)
Un nuevo desierto,
un nuevo granizo,
saben quien lo hizo
anda por acá.

Dios perdona,
el hombre a veces,
LA naturaleza nunca
anda por acá.

(Vuelve bajo)
No te olvides del mamut,
que no termino el vermouth. (x2)
por allá...

Puente:
(Igual)
  Am
Y si viene un río gris
         Dm
que separa al mundo en dos
         C                   G
quisiera quedar del mismo lado

nena que vos

Estribillo:
(Igual)
Am               Dm
Oh oh oh oh,
 C                     G
cosas de la civilización.

Viene:
      Am              Dm               C               G
Depdorebedendaun Depdoredendaun Depdorepdendedau Depdorendendauu
e|10-8-10-12-8--|10-8-10-12--8-|10-8-10-12-8--8|-10-8-10-12-8-7-|--|
b|------------10|--------------|------------10-|----------------|--|
g|--------------|--------------|---------------|----------------|--|
d|--------------|--------------|---------------|----------------|x2|
a|--------------|--------------|---------------|----------------|--|
E|--------------|--------------|---------------|----------------|--|

Fin con:
Guitarra:
    Am     Dm     C     G
e|12----|12----|12----|-----|
b|--13--|--13--|--13--|10/12|
g|----14|----12|----10|10/12|
d|------|------|------|-----|
a|------|------|------|-----|
E|------|------|------|-----|
Suggest correction
Creating personal tab
Creating personal tab
You can edit any tab online and save it as your Personal.

You can edit, replace or remove any tab part or add personal notes – all changes will be seen only by you.

Personal tabs can be accessed anytime from any device, even offline.
Learn more »
Give kudos to tab author, rate the tab!
1 2 3 4 5
comments
print report bad tab
guest
Wanna post a correction for this tab? Suggest correction