Oops, an error
Loading. Please wait.

Difícil tab

version 2
version 2

Whole song

70 views 1 this week
no commentswrite comment
1 2 3 4 5
3 more votes to show rating
add to favorites
×
Save as Personal and add changes to this tab that will be seen only by you. Learn more ›
×
You can save this tab as Personal to edit and correct it or add notes. All changes will be seen only by you. Learn more »
launch autoscroll
font size
0
reset
how to read this tab
guitar tuner
edit
Autoscroll
slow
fast
+/-
esc
set tempo
stop
Acá están los solos y los arreglos de la canción,
no subí la intro  ni los acordes porque los que
hay ya están bien.

Solo del principio:
E|-------------------------|
B|-------------------------|
G|-------------------------|
D|-9h11~-------------------|
A|----------7h9-7--9d11--7-|
E|-------------------------|

E|---------------------------------------------------------|
B|----------9d11-12-12d14--12------------------------------|
G|-------------------------------12p11-9-------------------|
D|---9h11~-------------------------------11-9h11-----------|
A|------------------------------------------------7--9-----|
E|------------------------------------------------------9--|


Esto es en el estribillo, se hace con el slide:

G|--9~~~-1--1s2~~~-2s4~~~-

Segundo solo:
E|-------------------------|
B|-------------------------|
G|-------------------------|
D|-9h11~-------------------|
A|----------7h9-7--9d11--7-|
E|-------------------------|

E|------------------------------|
B|------------9d11-12-12d14--12-|
G|---------11-------------------|
D|---9h11~----------------------|
A|------------------------------|
E|------------------------------|

------------------------------------------------7-|
--------------------------------------------------|
12p11-9---------------------------------------9---|
---------9h11--11------------------------8h9------|
-------------------9--7--6-----------7h9----------|
---------------------------4-4--5--7--------------|


Esto es en el estribillo, se hace con el slide:

G|--9~~~-1--1d2~~~-2d4~~~-


En la segunda vuelta de donde dice "nada para ser solo"
hace esto:

E|---14-14d13-12--|-15d8h9--|--12-10--12--10--6h8-8h9----|-------|
B|----------------|---------|----------------------------|--7h8~-|


G|--9~~~-1--1d2~~~-2d4~~~-(con slide)

Después de "una pasión, se necesita siempre
una pasión" viene un solo que no logré sacar!


p: pull off
h: hammer on
d: deslizar la cuerda
s: estirar la cuerda hasta el número de traste que tenga adelante

Gracias y puntúen

            
            
Suggest correction
Creating personal tab
Creating personal tab
You can edit any tab online and save it as your Personal.

You can edit, replace or remove any tab part or add personal notes – all changes will be seen only by you.

Personal tabs can be accessed anytime from any device, even offline.
Learn more »
Give kudos to tab author, rate the tab!
1 2 3 4 5
comments
print report bad tab
guest
Wanna post a correction for this tab? Suggest correction