Oops, an error
Loading. Please wait.

Media Caña chords

25 views 3 this week
no commentswrite comment
1 2 3 4 5
3 more votes to show rating
add to favorites
×
Save as Personal and add changes to this tab that will be seen only by you. Learn more ›
×
You can save this tab as Personal to edit and correct it or add notes. All changes will be seen only by you. Learn more »
launch autoscroll
font size
0
reset
transpose
0
reset
display chords
guitar tuner
edit
Autoscroll
slow
fast
+/-
esc
set tempo
stop
Strumming
There is no strumming pattern for this song yet. and get +5 IQ
RIFF

E                    E                 F         G           E
-----------------------------------------------------------------------------
-7--7--7--7--7--7---7--7-7--7--7--7---8-8-8---10--10--10--7--7--7--7--7--7
-6-7--9--9--7--6---6--7--9--9--7--6---7-8--10---9--10--12--6-7--9--9--7--6
-----------------------------------------------------------------------------
-----------------------------------------------------------------------------
-----------------------------------------------------------------------------

E
Media caña en el colchon
Pata dura y corazon
F             G              E
Sos enganche, ya no hay goleador
E
Sentir el viento correr
Pasto fresco amanecer
F        G          E
Necesito volar otra  vez.
C#m                        A
    Y la distancia te hizo buena
C#m                               A
    El sol de asoma y la noche en vela
C#m                            A         F#   A
    Y ois los chicos para la escuela


E                    
---------------------------------------------
---------------------------------------------
---------------------------------------------
---------------------------------------------
----------5---------------------5------------
-7--5--4-----4--5--7---7--5--4-----4--5--7---


E
Una foto sin color
No me tires por favor
F             G            E 
Soy lo ultimo que queda de mi.
E
En la cuarta dimension
La del más profundo amor 
F            G            E
Te agradezco por cuidarme asi.
C#m                             A
   Guardando el tiempo en cajas viejas
C#m                         A
   De tinta y humo torpes madejas

C#m                           A      F#   A
   Vas devolviendo la vida en gotas

A                                           G
-------------------------------------------------
-------------------------------------------------
-------------------------------------------------
-4--2--1--4--2--1--4--6--7--9--11--9--7--6--7----
-------------------------------------------------
-------------------------------------------------

A                                             G          G
-------------------------------------------------
-------------------------------------------------
-------------------------------------------------
-------------------------------------------------
-5--3--2--5--3--2--5--7--8--10--12--10--8--7--8--


G
Siga, siga, semental 
Que la cosa no va mal
G#        Bb        G       
Esto debe ser estar feliz.
G
Una copa y un puñal
Nada más elemental
G#            Bb              G 
Que seguir, seguir, clavando amor.
Em                                  C
  Pero en tu hogar no hay luces prendidas
Em                             C
  Cuando volves la olla esta vacia
Em                          C      A    C        
  Todos los sueños cargan heridas,    sabes.

G                           G#  Bb   G
AH AH AH AH AH AH AH

            
            
Suggest correction
Creating personal tab
Creating personal tab
You can edit any tab online and save it as your Personal.

You can edit, replace or remove any tab part or add personal notes – all changes will be seen only by you.

Personal tabs can be accessed anytime from any device, even offline.
Learn more »
Give kudos to tab author, rate the tab!
1 2 3 4 5
comments
print report bad tab
guest
Wanna post a correction for this tab? Suggest correction