Oops, an error
Loading. Please wait.

Media Caña tab

10 views 1 this week
no commentswrite comment
1 2 3 4 5
3 more votes to show rating
add to favorites
×
Save as Personal and add changes to this tab that will be seen only by you. Learn more ›
×
You can save this tab as Personal to edit and correct it or add notes. All changes will be seen only by you. Learn more »
launch autoscroll
font size
0
reset
how to read this tab
guitar tuner
edit
Autoscroll
slow
fast
+/-
esc
set tempo
stop
Intro:
     E        E           F        G        E       E
e|--------|--------|--|--------|---------|--------|--------|
b|--------|--------|--|--------|---------|--------|--------|
g|--------|--------|--|--------|---------|--------|--------|
d|-6-7--9-|-9-7--6-|x2|-7-8--10|-9--10-12|-6-7--9-|-9-7--6-|
a|-7-7--7-|-7-7--7-|--|-8-8--8-|-10-10-10|-7-7--7-|-7-7--7-|
E|--------|--------|--|--------|---------|--------|--------|

Estrofa 1:
(Como intro)
E
Media caña en el colchón
E
pata dura y corazón
F             G               E
sos enganche, ya no hay goleador.
E
Sentir el viento correr
E
pasto fresco amanecer
F        G           E
necesito volar otra vez

Puente:

Arreglos de teclado:
    C#m     G
e|-4-----|--3----|--|
b|-----5-|--3----|--|
g|---6---|--4----|x3|
d|-6-----|-------|--|
a|-------|-------|--|
E|-------|-------|--|
C#m                    G
Y la distancia te hizo buena
C#m                          A
el sol se asoma y la noche en vela
C#m                         G
y oís los chicos para la escuela.

   F#5                 A5
e|---------------|---------------|
b|---------------|---------------|
g|---------------|---------------|
d|4-4-4-4-4-4-4-4|7-7-7-7-7-7-7-7|
a|4-4-4-4-4-4-4-4|7-7-7-7-7-7-7-7|
E|2-2-2-2-2-2-2-2|5-5-5-5-5-5-5-5|

Solo:
     A            G
e|----------------------|--||
b|12-10-9h10p9-7-9-10-12|--||
g|----------------------|--||
d|----------------------|x2||
a|----------------------|--||
E|----------------------|--||

Estrofa 2:
(como intro)
Bajo:
     E        E             F           F     G          G
g|-------------------|--|-------------------|------|------------|
d|-------------------|--|-------------------|------|------------|
a|-------------------|x2|------0---------0--|-----2|---------2--|
E|0-0-0-4-0-0-0-0-4-0|--|1-1-1--1-1-1-1-1--1|3-3-3-|3-3-3-3-3--3|
   E         E
g|-------|-----------|
d|-------|-----------|
a|-------|-----------|
E|0-0-0-4|0-0-0-0-4-0|

E
Una foto sin color
No me tires por favor
F             G            E
Soy lo ultimo que queda de mi.

Guitarra 2:
(Junto con la voz, de fondo)
            E                       F              G
e|----------------------|--|--------------------|-----||
b|12-10-9h10p9-7-9-10-12|--|11-10-8-6-11-10-8-10|--8--||
g|----------------------|--|--------------------|-----||
d|----------------------|x2|--------------------|-----||
a|----------------------|--|--------------------|-----||
E|----------------------|--|--------------------|-----||

E
En la cuarta dimension
La del más profundo amor
F            G            E
Te agradezco por cuidarme asi.

Puente;

Arreglos de teclado:
    C#m     G
e|-4-----|--3----|--|
b|-----5-|--3----|--|
g|---6---|--4----|x3|
d|-6-----|-------|--|
a|-------|-------|--|
E|-------|-------|--|

Bajo:
(En tónicas)

C#m                    G
Guardando el tiempo en cajas viejas
C#m                          A
De tinta y humo, torpes madejas
C#m                         G
vas devolviendo la vida en gootas

   F#5                 A5
e|---------------|---------------|
b|---------------|---------------|
g|---------------|---------------|
d|4-4-4-4-4-4-4-4|7-7-7-7-7-7-7-7|
a|4-4-4-4-4-4-4-4|7-7-7-7-7-7-7-7|
E|2-2-2-2-2-2-2-2|5-5-5-5-5-5-5-5|

Solo:
   A                             G
e|------------------------------------|
b|------------------------------------|
g|6--4-2--6--4-2--6-7-9-11-12-11-9-7-7|
d|------------------------------------|
a|------------------------------------|
E|------------------------------------|
   A                              G
e|------------------------------------------|
b|------------------------------------------|
g|9--7-6--9--7-6--9-11-12-14-16-14-12-11-12-|
d|------------------------------------------|
a|------------------------------------------|
E|------------------------------------------|

Estrofa 3:
(Toda esta estrofa tiene una modulación de un tono y medio)

Guitarra 1:
     G          G          G#         A#       G          G
e|---------|--------|--|---------|---------|---------|---------|
b|---------|--------|--|---------|---------|---------|---------|
g|---------|--------|--|---------|---------|---------|---------|
d|-9--10-12|12-10-9-|x2|-10-11-13|-12-13-15|-9--10-12|12-10-12-|
a|-10-10-10|10-10-10|--|-11-11-11|-13-13-13|-10-10-10|10-10-10-|
E|---------|--------|--|---------|---------|---------|---------|

Bajo:
(Primero un tiempo así:)
    G          G
g|-------|----------|--|
d|-------|----------|x4|
a|----2--|--------2-|--|
E|-3-----|-3-3-3-3-3|--|

    G          G           G#       G#       A#       A#
g|-------|----------|--|------|----------|------|----------|
d|-------|----------|x4|------|----------|------|----------|
a|----2--|--------2-|--|---3--|--------3-|----5-|--------5-|
E|-3-----|-3-3-3-3-3|--|-4----|-4-4-4-4-4|-6----|-6-6-6-6-6|
    G         G
g|-------|----------|
d|-------|----------|
a|-------|----------|
E|----2--|--------2-|

G
Siga, siga, semental
Que la cosa no va mal
G#        Bb        G
Esto debe ser estar feliz.

Entra guitarra 2:
(Junto con la voz, de fondo)
            G                        G#                  A#
e|--------------------------|--|----------------------|-----||
b|15-13-12h13p12-10-12-13-15|--|14-13-11-9-14-13-11-13|--11-||
g|--------------------------|--|----------------------|-----||
d|--------------------------|x2|----------------------|-----||
a|--------------------------|--|----------------------|-----||
E|--------------------------|--|----------------------|-----||

Puente:
Bajo:
(Sobre Tonicas)

Em                                  C
  Pero en tu hogar no hay luces prendidas
Em                             C
  Cuando volves la olla esta vacia
Em                          C
  Todos los sueños cargan heridas

           sabeeeeeeeeeeeeeeesss
       A5              C5
e|---------------|---------------|
b|---------------|---------------|
g|---------------|5-5-5-5-5-5-5-5|
d|7-7-7-7-7-7-7-7|5-5-5-5-5-5-5-5|
a|7-7-7-7-7-7-7-7|3-3-3-3-3-3-3-3|
E|5-5-5-5-5-5-5-5|---------------|


G                           G#  A#   G
Ahhhhhhhahahahhhhhhhhahhh  ahhh ahhh ahh

Temazo!
Ahora empiezan 'Quien sabe tocar Media caña con la guitarra?'
jajajaja
Saludos!

            
            
Suggest correction
Creating personal tab
Creating personal tab
You can edit any tab online and save it as your Personal.

You can edit, replace or remove any tab part or add personal notes – all changes will be seen only by you.

Personal tabs can be accessed anytime from any device, even offline.
Learn more »
Give kudos to tab author, rate the tab!
1 2 3 4 5
comments
print report bad tab
guest
Wanna post a correction for this tab? Suggest correction