Oops, an error
Loading. Please wait.

Pacífico tab

version 3
version 3

Whole song

64 views 1 this week
no commentswrite comment
1 2 3 4 5
3 more votes to show rating
add to favorites
×
Save as Personal and add changes to this tab that will be seen only by you. Learn more ›
×
You can save this tab as Personal to edit and correct it or add notes. All changes will be seen only by you. Learn more »
launch autoscroll
font size
0
reset
how to read this tab
guitar tuner
edit
Autoscroll
slow
fast
+/-
esc
set tempo
stop
Hola piojosos!! Buenisimo tema de los piojos, lo saque con los riffs
Y arreglos de guitarra para que este completito, para tocarlo con
Electrica usen palm mute, o sea apagado de notas para hacerlo igual
Que en el cd, escuchen el machaque. Abajo, mas consejitos.

E
 Ahora que estoy vació
F#
 Ahora que no hay canción
A                  E
 Toda la luna cabe en mí

E
 Ahora que soy silbido
F#
 De alguien que sale a andar
A                   E
 Veo otro cielo alrededor

C#m
 Todos esos deseos
G#m
 De noche fría de alcohol
A                     E
 Hoy te los quiero regalar

C#m
 El agua me salpica
G#m
 El fuego es realidad
A                    F#         A
 Me gustaba tanto tu vooooooooooz

   E                                 F#
E-----------------------------------------------------------
B-----------------------------------------------------------
G-----------------------------------------------------------
D-----9-9--7-7-6-----9-9--7-7--6-6------11-11--9-9-8--------
A-7-7------------7-7----------------7/9---------------------
E-----------------------------------------------------------
                       A
E-----------------------------------------------------------
B-----------------------------------------------------------
G-----------------------------------------------------------
D-----11-11--9-9-8.8-------14-14-12-12-10----14-14-12-12-10-
A-9-9-----------------9/12----------------12----------------
E-----------------------------------------------------------
  E
E-----------------------------------------------------------
B-----------------------------------------------------------
G-----------------------------------------------------------
D-----9-9--7-7-6-----9-9-7-7--6-6---------------------------
A-7-7------------7-7---------------7~~----------------------
E-----------------------------------------------------------

E
 Dejando que suceda
F#
 Es más fácil así
A                       E
 El cuerpo bien sabe flotar

E
 Distintas las miradas
F#
 Y tu contestación
A                          E
 Muestra que inútil fue mi hablar

C#m
 La mente esta vacía
G#
 El cuerpo quiere girar
A                        D
 Y en la pupila aquel dolor


Estribillo
      A             E
    Oh oh? voy a llevarte en mi
          G                    D
  Y ahora se muy bien, que me llevaras
         A                   G
  Hasta donde estés, a donde vayas
        E                 G
  Un tatuaje azul, en la voz azul.

   E                                 F#
E-----------------------------------------------------------
B-----------------------------------------------------------
G-----------------------------------------------------------
D-----9-9--7-7-6-----9-9--7-7--6-6------11-11--9-9-8--------
A-7-7------------7-7----------------7/9---------------------
E-----------------------------------------------------------
                       A
E-----------------------------------------------------------
B-----------------------------------------------------------
G-----------------------------------------------------------
D-----11-11--9-9-8.8-------14-14-12-12-10----14-14-12-12-10-
A-9-9-----------------9/12----------------12----------------
E-----------------------------------------------------------
  E
E-----------------------------------------------------------
B-----------------------------------------------------------
G-----------------------------------------------------------
D-----9-9--7-7-6-----9-9-7-7--6-6---------------------------
A-7-7------------7-7---------------7~~----------------------
E-----------------------------------------------------------

   E                 F#            A                   E
    Ohh ohh ohh ohh   oh oh oh oh   oh oh oh oh oh ohhhhhhh
E--------0-------0------------------------------------------
B----0-------4---------7--5--4------5-----5------5----------
G-------------------------------6------6-----6--------------
D---------------------------------------------------5HB6----
A-----------------------------------------------------------
E-----------------------------------------------------------

C#m
 Algo tiembla al oído
G#m
 Sobra de un susurro sin voz
A                   D
 La ultima oportunidad


  Estribillo
      A             E
    Oh oh? voy a llevarte en mi
          G                    D
  Y ahora se muy bien, que me llevaras
         A                   G
  Hasta donde estés, a donde vayas
        E                 G
  Un tatuaje azul, en la voz azul.

FINAL:( A E G D) repite esta progresión de acordes hasta el fade out.


Bueno veran que el tema es bastante sencillo para aprenderlo
Asi que piojosos a practicar!!! Cualquier duda o comentario
Escribanme a migspider007@ para lo que sea!!!
Quiero dedicar esta cancion a una persona muy especial, de esas
Que aparecen cuando no lo esperas y que te enseñan que siempre
Hay algo mas? gracias Any por dejarme conocerte, te quierooo
Muuuuchoooooo!!!! Y x mas que dentro de poco ya no nos veamos
Todos los dias yo t voy a seguir queriendo!!!! MICKY

            
            
Suggest correction
Creating personal tab
Creating personal tab
You can edit any tab online and save it as your Personal.

You can edit, replace or remove any tab part or add personal notes – all changes will be seen only by you.

Personal tabs can be accessed anytime from any device, even offline.
Learn more »
Give kudos to tab author, rate the tab!
1 2 3 4 5
comments
print report bad tab
guest
Wanna post a correction for this tab? Suggest correction