Oops, an error
Loading. Please wait.

5 Ó 6 tab

version 1
version 1

Whole song

81 views 1 this week
no commentswrite comment
1 2 3 4 5
3 more votes to show rating
add to favorites
×
Save as Personal and add changes to this tab that will be seen only by you. Learn more ›
×
You can save this tab as Personal to edit and correct it or add notes. All changes will be seen only by you. Learn more »
launch autoscroll
font size
0
reset
how to read this tab
guitar tuner
edit
Autoscroll
slow
fast
+/-
esc
set tempo
stop
intro
e----------------3/0-0/1/0----------------
b-----3/0--0/1/0-----------0/3/-----------
g-0-0----0--------------------------------
d-----------------------------------------
a-----------------------------------------
E-----------------------------------------

luego de hacer eso como 3 veces lleva un arreglillo
e------------------------------------
b-----3/0--0-0/1/0-------------------
g-0-0-----0--------0/2/0-------------
d------------------------0/2/0-------
a------------------------------------
E------------------------------------

luego ya va "Por que estes conmigo nada...."
y son quintas asi:
  G5  B5  C5  F5  F#5 G5  B5  F5  C5  F#5
E|-3-|---|---|-1-|-2-|-3-|---|-1-|---|-2-|
A|-5-|-2-|-3-|-3-|-4-|-5-|-2-|-3-|-3-|-4-|
D|-5-|-4-|-5-|-3-|-4-|-5-|-4-|-3-|-5-|-4-|
G|---|-4-|-5-|---|---|---|-4-|---|-5-|---|


"Y Tener veneno para dar,fiel amante para ser..."
  G5  B5  C5  F5  F#5 G5  B5  C5  F5  F#5
E|-3-|---|---|-1-|-2-|-3-|---|---|-1-|-2-|
A|-5-|-2-|-3-|-3-|-4-|-5-|-2-|-3-|-3-|-4-|
D|-5-|-4-|-5-|-3-|-4-|-5-|-4-|-5-|-3-|-4-|
G|---|-4-|-5-|---|---|---|-4-|-5-|---|---|

VERSOS SE TPCAN COMO EL INTRO
5-6 de la mañana,acostadito en mi cama
necesito un buen cafe para poderme prender
pienso que estaras haciendo ahora
tal vez quieras dar una vuelta mi calor

coro
Por que estes conmigo,Nada tengo que perder
y tener veneno para dar fiel amante para ser una vez mas

Y no quiero estar probarlo,no puedo soportarlo
A5                 F5           "ESTO EN LOS 2"
e-----------------|---|
b-9/10-12-10-9----|---|
g-9------------9--|---|
d-----------------|-3-|
a-----------------|-3-|
E-----------------|-1-|

  Ya no quiero estar todo
e|---|---|---|---|---|---|---|
b|---|---|---|---|---|---|---|
g|-6-|-7-|-9-|-7-|-6-|---|---|
d|-6-|-7-|-9-|-7-|-6-|-7-|-3-|
a|-4-|-5-|-7-|-5-|-4-|-7-|-3-|
E|---|---|---|---|---|-5-|-1-|

luego lo primero otra vez y ahi dice "solo"

verso
5-6 de la mañana acostadito en mi cama
necesito un buen cafe para poderme prender
mustang rojo llantas,cara blanca tengo todo y ahora que
me falta!!!!!!

con las notas del coro
G5-B5-C5-F5-F#5-G5-B5-F5
Quiero perder todo por ti

coro:POR QUE ESTES CONMIGO NADA TENGO QUE PERDER......


FINAL VA MAS O MENOS CON ESTE ARREGLO
e---7-----10/7-7/8----------------
b--8--8------------8/10/8---------
g-7-----7-------------------------
d---------------------------------
a---------------------------------
E---------------------------------

Y ACABA QUIERO PERDR TODO POR TI IGUAL QUE EL OTRO 
CUALQUIER CORRECCION MANDENMELA BYE.

            
            
Suggest correction
Creating personal tab
Creating personal tab
You can edit any tab online and save it as your Personal.

You can edit, replace or remove any tab part or add personal notes – all changes will be seen only by you.

Personal tabs can be accessed anytime from any device, even offline.
Learn more »
Give kudos to tab author, rate the tab!
1 2 3 4 5
comments
print report bad tab
guest
Wanna post a correction for this tab? Suggest correction