Oops, an error
Loading. Please wait.

Globo tab

version 1
version 1

Whole song

25 views 1 this week
no commentswrite comment
1 2 3 4 5
3 more votes to show rating
add to favorites
×
Save as Personal and add changes to this tab that will be seen only by you. Learn more ›
×
You can save this tab as Personal to edit and correct it or add notes. All changes will be seen only by you. Learn more »
launch autoscroll
font size
0
reset
how to read this tab
guitar tuner
edit
Autoscroll
slow
fast
+/-
esc
set tempo
stop
WAZAAAAAAAAAAAAAAAAAAAAAAAAAAAAAAAAAAAAAAA
LLeva drop-d
Ven a mi otra vez ......
e-----------------------------------------------------
b-----------------------------------------------------
g-----------------------------------------------------
d-2-2-2-2-2-2-2-2-2-2--7-7-7-7-7-7-7-7--1-1-1-1-3-1-3-
a-1-1-1-1-1-1-1-1-1-1--6-6-6-6-6-6-6-6--2-2-2-2-2-2-2-
e---------------2---2--5-5-5-5-5-0-5-0--3-3-3-3-3-3-3-

solo te llevare hasta lado mas oculto de mi ser

e-----------------------------------------------------
b-----------------------------------------------------
g-----------------------------------------------------
d-2-2-2-2-2-2-2-2-2-2--7-7-7-7-7----1-1-1-1-3-3-------
a-1-1-1-1-1-1-1-1-1-1--6-6-6-6-6----2-2-2-2-2-2-------
e----------------------5-5-5-5-5----3-3-3-3-3-3-------

y volaremos en un globo que invente solos

e-----------------------------------------------------
b-----------------------------------------------------
g-----------------------------------------------------
d-2-2-2-2-2-2-2-2-2-2--7-7-7-7-7----1-1-1-1-3-3-------
a-1-1-1-1-1-1-1-1-1-1--6-6-6-6-6----2-2-2-2-2-2-------
e----------------------5-5-5-5-5----3-3-3-3-3-3-------

tirame otra vez 

e---------------------------------------------------
b----0------0-----2-------0-------0------0------7---
g--2---2---4--4--0--0---2---2---4---4---2--1---6---6
d-0------2------4-----0-------2-------4------5-----
a---------------------------------------------------
e---------------------------------------------------

que estoy volando en un globo

e---------------------------------------------------
b----0------0-----2-------0-------0------0------7---
g--2---2---4--4--0--0---2---2---4---4---2--1---6---6
d-0------2------4-----0-------2-------4------5-----
a---------------------------------------------------
e---------------------------------------------------

si caigo morire

e---------------------------------------------------
b----0------0-----2-------0-------0------0------7---
g--2---2---4--4--0--0---2---2---4---4---2--1---6---6
d-0------2------4-----0-------2-------4------5-----
a---------------------------------------------------
e---------------------------------------------------

ven a mi otra vez

e-----------------------------------------------------
b-----------------------------------------------------
g-----------------------------------------------------
d-2-2-2-2-2-2-2-2-2-2--7-7-7-7-7----1-1-1-1-3-3-------
a-1-1-1-1-1-1-1-1-1-1--6-6-6-6-6----2-2-2-2-2-2-------
e----------------------5-5-5-5-5----3-3-3-3-3-3-------

que es solo para ti un  sueño

e-----------------------------------------------------
b-----------------------------------------------------
g-----------------------------------------------------
d-2-2-2-2-2-2-2-2-2-2--7-7-7-7-7----1-1-1-1-3-3-------
a-1-1-1-1-1-1-1-1-1-1--6-6-6-6-6----2-2-2-2-2-2-------
e----------------------5-5-5-5-5----3-3-3-3-3-3-------

te llevare hasta el lado mas profundo tokare

e-----------------------------------------------------
b-----------------------------------------------------
g-----------------------------------------------------
d-2-2-2-2-2-2-2-2-2-2--7-7-7-7-7----1-1-1-1-3-3-------
a-1-1-1-1-1-1-1-1-1-1--6-6-6-6-6----2-2-2-2-2-2-------
e----------------------5-5-5-5-5----3-3-3-3-3-3-------

 y volaremos en un globo que invente

e-----------------------------------------------------
b-----------------------------------------------------
g-----------------------------------------------------
d-2-2-2-2-2-2-2-2-2-2--7-7-7-7-7----1-1-1-1-3-3-------
a-1-1-1-1-1-1-1-1-1-1--6-6-6-6-6----2-2-2-2-2-2-------
e----------------------5-5-5-5-5----3-3-3-3-3-3-------


solos 
tirame otra vez
que estoy volando en un globo
si caigo morire
tirame otra vez 
que estoy volando en un globo
si caigo morire
e---------------------------------------------------
b----0------0-----2-------0-------0------0------7---
g--2---2---4--4--0--0---2---2---4---4---2--1---6---6
d-0------2------4-----0-------2-------4------5-----
a---------------------------------------------------
e---------------------------------------------------

aqui cambia
acuerdate de mi por favor
e-------------------------------------------------
b-------------------------------------------------
g------------------------------------------------- 
d-2/3-2--2/3-2--2/3-3-2/3-2-2/3-2-2/3-5-----------
a-2/3-2--2/3-2--2/3-3-2/3-2-2/3-2-2/3-5-----------
e-------------------1-----------------3-----------


no lo vuelvo a hacer 
cai y aprendi a volar por ti

e----------------aqui mantienes el 2 mientras tokas el 9 
b----------------2~--(9)---------------2~-(9)-----
g----------(12)--------------------(12)----------- 
d------(12)--------------------(12)---------------
a--(5)----------------------(5)-------------------
e-------------------------------------------------


y aprendia volar por ti 1 
tirame otra vez 
que estoy bolando en un globo
si caigo morire

e---------------------------------------------------
b----0------0-----2-------0-------0------0------7---
g--2---2---4--4--0--0---2---2---4---4---2--1---6---6
d-0------2------4-----0-------2-------4------5-----
a---------------------------------------------------
e---------------------------------------------------

e-----------------------------------------------------
b-----------------------------------------------------
g-----------------------------------------------------
d-2-2-2-2-2-2-2-2-2-2--7-7-7-7-7----1-1-1-1-3-3-------
a-1-1-1-1-1-1-1-1-1-1--6-6-6-6-6----2-2-2-2-2-2-------
e----------------------5-5-5-5-5----3-3-3-3-3-3-------


tirame otra vez que estoy volando en un globo
si caigo morire
e-----------------------------------------------------
b-----------------------------------------------------
g-----------------------------------------------------
d-2-2-2-2-2-2-2-2-2-2--7-7-7-7-7----1-1-1-1-3-3-------
a-1-1-1-1-1-1-1-1-1-1--6-6-6-6-6----2-2-2-2-2-2-------
e----------------------5-5-5-5-5----3-3-3-3-3-3-------

con esto termina
e-------------------------------------------------
b-------------------------------------------------
g------------------------------------------------- 
d-2/3-2--2/3-2--2/3-3-2/3-2-2/3-2-2/3-5-----------
a-2/3-2--2/3-2--2/3-3-2/3-2-2/3-2-2/3-5-----------
e-------------------1-----------------3-----------

            
            
Suggest correction
Creating personal tab
Creating personal tab
You can edit any tab online and save it as your Personal.

You can edit, replace or remove any tab part or add personal notes – all changes will be seen only by you.

Personal tabs can be accessed anytime from any device, even offline.
Learn more »
Give kudos to tab author, rate the tab!
1 2 3 4 5
comments
print report bad tab
guest
Wanna post a correction for this tab? Suggest correction