Oops, an error
Loading. Please wait.

Globo tab

version 2
version 2

Whole song

32 views 1 this week
no commentswrite comment
1 2 3 4 5
3 more votes to show rating
add to favorites
×
Save as Personal and add changes to this tab that will be seen only by you. Learn more ›
×
You can save this tab as Personal to edit and correct it or add notes. All changes will be seen only by you. Learn more »
launch autoscroll
font size
0
reset
how to read this tab
guitar tuner
edit
Autoscroll
slow
fast
+/-
esc
set tempo
stop
Ke hay!! Pues estaba buscando una buena tab para esta rola pero no la encontre, asi que 
preferi sacarla yo asi que aqui esta para todos los que quieran ver como se toca.
Ta muy Facil o sea que Chido y Que VIVA PITO PEREZ!!!!!!!!!!!

Empieza con:

e----------------------------------------------------------------|
B----------------------------------------------------------------|
G----------------------------------------------------------------|
D-2---2-4-2---4---4-7---2---2-4-2---4---4-7---2---2-4-2---4---4-7|
A-2---2-4-2---4---4-7---2---2-4-2---4---4-7---2---2-4-2---4---4-7|
E-0---0-2-0---2---2-5---0---0-2-0---2---2-5---0---0-2-0---2---2-5|

Luego va el Coro:

e--------------------------------------------------------------------|
B--------------------------------------------------------------------|
G-9---9-----9---9-------------------7---7-----7---7--6---6-----6----6|
D-9-------9--------9---9-----9---9--7-------7--------6-------6-------|
A-7-7---7-----7----9-------9--------5-5---5-----5----4-4---4-----4---|
E------------------7-7---7-----7-------------------------------------|


Luego se repite lo primero 


Y despues va

e--------------------------------------------------------------------------
B--------------------------------------------------------------------------
G-9---9-----9---9-------------------7---7-----7---7--6---6-----6----6--7-9-
D-9-------9--------9---9-----9---9--7-------7--------6-------6---------7-9-
A-7-7---7-----7----9-------9--------5-5---5-----5----4-4---4-----4-----5-7-
E------------------7-7---7-----7-------------------------------------------

e-------------------------------------------------------------------|
B-------------------------------------------------------------------|
G----9-----9---9-------------------7---7-----7---7--6---6-----6----6|
D--------9--------9---9-----9---9--7-------7--------6-------6-------|
A--7---7-----7----9-------9--------5-5---5-----5----4-4---4-----4---|
E-----------------7-7---7-----7-------------------------------------|

Y luego va la parte de:

'Acuerdate de mi.......por favor'

e--------------------------------------------------------|
B--------------------------------------------------------|
G--------------------------------------------------------|x2
D-4-4-4-4-4--7-7-7-7-7-----------------------------------|
A-4-4-4-4-4--7-7-7-7-7--7875-57875-5-7-0-7875-57875-5-7-0|
E-2-2-2-2-2--5-5-5-5-5--7875-57875-5-7-0-7875-57875-5-7-0|

Luego va la parte lenta de 'No lo vulevo a hacer....'
(Aunque no se bien que se toca ahi si tocas los tres primeros acordes del coro mas despacio 

y sin distorsion se escucha bien)


Y luego va otra vez lo primero y el segundo coro 

Y termina asi:

e------------------------------------------------------xxxxxx-
B------------------------------------------------------xxxxxx-
G------------------------------------------------------xxxxxx-
D------------------------------------------------------xxxxxx-
A-7875-57875-5-7-0-7875-57875-5-7-0-7875-57875-5-7-0-7-xxxxxx-
E-7875-57875-5-7-0-7875-57875-5-7-0-7875-57875-5-7-0-7-xxxxxx-

e--------------------------------------------------------------|
B--------------------------------------------------------------|
G--------------------------------------------------------------|
D-------------------------------------------------------------2|
A-7875-57875-5-7-0-7875-57875-5-7-0-7875-57875-5-7-0--788787--2|
E-7875-57875-5-7-0-7875-57875-5-7-0-7875-57875-5-7-0--788787--0|

Dejas retumbar el ultimo acorde y se acaba bien bonito no?
Bueno eso es todo y ahi si la quieren corregir pues adelante
Escuchen mucho pito perez!!!!

            
            
Suggest correction
Creating personal tab
Creating personal tab
You can edit any tab online and save it as your Personal.

You can edit, replace or remove any tab part or add personal notes – all changes will be seen only by you.

Personal tabs can be accessed anytime from any device, even offline.
Learn more »
Give kudos to tab author, rate the tab!
1 2 3 4 5
comments
print report bad tab
guest
Wanna post a correction for this tab? Suggest correction