Oops, an error
Loading. Please wait.

Globo tab

version 3
version 3

Whole song

38 views 1 this week
no commentswrite comment
1 2 3 4 5
3 more votes to show rating
add to favorites
×
Save as Personal and add changes to this tab that will be seen only by you. Learn more ›
×
You can save this tab as Personal to edit and correct it or add notes. All changes will be seen only by you. Learn more »
launch autoscroll
font size
0
reset
how to read this tab
guitar tuner
edit
Autoscroll
slow
fast
+/-
esc
set tempo
stop
 (1)
 
e---------------------| 
B---------------------|
G---------------------|
D--2-2-0--4-2---2-2-2-|
A--2-2-0--4-2---2-2-2-|
E--0-0-*--2-0---2-2-2-|
       pm
Ven a mi otra vez,
te llevare, y volaremos.______(frases en que se usan primera estrofa (1))

 (2)

e--------------------|
B--------------------|
G--------------------|
D--4-4--4-4-4-//-7-7-|
A--4-4--4-4-4-//-7-7-|
E--2-2--2-2-2-//-5-5-|  
 
que estoy atado a ti,
solo, hasta el lado mas oculto de mi ser,
en un globo que invente solo.______________(frases que se usa primera estrofa (2))
 
 coro 1

e-------------------------------------------|
B-------------------------------------------|
G--6----//----4----//----7----//----6-------|
D--6----//----4----//----7----//----6-------|
A--4----//----2----//----5----//----4-------|
E-------------------------------------------|  
  X8 tiempos..............|     X7 tiempos..|

 tirame otra vez!...


°despues del coro se repite el numero (1) pero ahora con la segunda estrofa:
 
 (frases de la segunda estrofa)
 ven a mi otra vez, te llevare, y volaremos..

°despues se repite el numero (2) pero ahora con las frases de la segunda estrofa:

(frases de la segunda estrofa)
que es solo para mi un sueño,
hasta el el lado mas oculto tocare,
en un gobo que invente solos...


se repite el coro pero ahora con estas dos variaciones:

 coro 2 (variacion '1')
 
e-------------------------------------------------------------|
B-------------------------------------------------------------|
G--6----//----4----//----7----//----6----//----7------------9-|
D--6----//----4----//----7----//----6----//----7------------7-|
A--4----//----2----//----5----//----4----//----5------------7-|
E-----------------------------------------------------------0-|
  X8 tiempos..............|    X7 tiempos.| Xtiempo1/2.| X8 tiempos 

tirame otra vez!

e-----------------------|
B-----------------------|
G-------7----//----6----|
D--9----7----//----6----|
A--9----5----//----4----|
E--7--------------------|
X8 tiempos..............|


 y sigue la (variacion '2')

e---------------------|
B---------------------|
G---------------------|
D--4-4--4-4-4-//-7-7--|
A--4-4--2-2-2-//-7-7--|
E--2-2--2-2-2-//-5-5--|
  Acuerdate de mi!!......

 (3)

e----------------------------------------------------------------|
B----------------------------------------------------------------|
G----------------------------------------------------------------|
D--2/3-2-0---0-2/3-0---0-2/3-2-0---0-2/3-2-0---0-2/3-0---0-2/3-0-|
A--2/3-2-0---0-2/3-0---0-2/3-2-0---0-2/3-2-0---0-2/3-0---0-2/3-0-|
E----------------------------------------------------------------|
 PM..............................................................|
  ¡por favor!

se repite acuerdate de mi!....
y despues se repite el numero (3) pero con esta variacion:
en vez de repetirce 6 veces se repite solo 5 y la quinta lleva esto.
 
  (variacion del (3))
e-----------------------------------------------------|
B-----------------------------------------------------|
G-----------------------------------------------------|
D--2/3-2-0---0-2/3-0---0-2/3-2-0---0-2/3-2-0---0-2/3-2|
A--2/3-2-0---0-2/3-0---0-2/3-2-0---0-2/3-2-0---0-2/3-2|
E-----------------------------------------------------|
 PM...................................................|

despues del coro2 y sus variaciones hay un silencio en la guitarra y despues 
sigue esto:

e----------------------|
B----------------------|
G----------------------|
D--2-2-0--4-2----2-2-2-|
A--2-2-0--4-2----2-2-2-|
E--0-0-*--2-0----2-2-2-|
      pm
  (silencio)
y aprendi a volar por ti____ (frases que lleva la tercera estrofa)

 
e--------------------|
B--------------------|
G--------------------|
D--4-4--4-4-4-//-7-7-|
A--4-4--4-4-4-//-7-7-|
E--2-2--2-2-2-//-5-5-|
 
y aprendi a volar por ti!____( frase que lleva la tercera estrofa)

(despues serepite toda la variacion 1 del coro2)
 
y viene la tercera version del coro y es esta:

se repite la parte 3 sin su variacion 10 veces.
la onceaba es un palm muted en estos trastes..

 (11ava)
e-----|
B-----|
G-----|
D--2--| X 4 tiempos
A--2--|
E--*--|
  pm
 
 se repite otras diez veces la parte 3 
 sin la variacion y termina asi:

e---------------|
B---------------|
G---------------|
D--2/3-2-0--0-2-|
A--2/3-2-0--0-2-|
E---------------|

   FIN!!!!!

esta tabla esta re facil es solo practicarla bien  
y acoplarce a los tiempos y a las variaciones pero
de hay en fuera no tiene ninguna dificultad ademas
de que es una hasta donde pude exacta asi que a darle

            
            
Suggest correction
Creating personal tab
Creating personal tab
You can edit any tab online and save it as your Personal.

You can edit, replace or remove any tab part or add personal notes – all changes will be seen only by you.

Personal tabs can be accessed anytime from any device, even offline.
Learn more »
Give kudos to tab author, rate the tab!
1 2 3 4 5
comments
print report bad tab
guest
Wanna post a correction for this tab? Suggest correction