Oops, an error
Loading. Please wait.

Globo bass

49 views 1 this week
no commentswrite comment
1 2 3 4 5
3 more votes to show rating
add to favorites
×
Save as Personal and add changes to this tab that will be seen only by you. Learn more ›
×
You can save this tab as Personal to edit and correct it or add notes. All changes will be seen only by you. Learn more »
launch autoscroll
font size
0
reset
guitar tuner
edit
Autoscroll
slow
fast
+/-
esc
set tempo
stop
INTRO:
D-----------------------7----
A--7------587----9---------
M-------------------------

DESPUES:
D-----------------------7------------------7--  Y SIGUES CON EL INTRO
A--7------587----9---------------7-9--7-------
M---------------------------------------------

VERSO:

D----------------------------------------------------------------------
A-444-444-444-444-4-222-222-222-222-2-555-555-555-555-5-666-666-666-666
D----------------------------------------------------------------------

REGRESO INTRO 00:51

REGRESO VERSO 1:21

D----------------------------------------------------------------------
A-444-444-444-444-4-222-222-222-222-2-555-555-555-555-5-444-444-444-444
D----------------------------------------------------------------------

PERO AHORA CAMBIA LA SIGUIENTE PARTE

D--------------------------------------------------------------------------
A-4-5-777--777-777-222-222-222------555-555-555-555-5-444-444-444-444
D--------------------------------------------------------------------------

INTERLUDIO:

D-------------------
A------------------- REPETIR
D-4-4-7--023------

ESTO ULTIMO SE REPITE RAPIDO ESCUCHALO BIEN

EN GENERAL LA TRANSCRIPCION ESTABA BIEN SOLO LE FALLABA EN POCO
SI QUIUEREN AFINAR EN RE LA 4TA CUERDA SOLO TRANSPORTEN Y YA PERO
ME LATE COMO SUENA ASI...

ES MI PRIMERA TAB Y SE LA QUIERO

DEDIKAR A ALEJANDRA QUE ME TRAE KOMO EN UN GLOBO..

SAS PUES MENTADAS Y QUEJAS A rojokser@

            
            
Suggest correction
Creating personal tab
Creating personal tab
You can edit any tab online and save it as your Personal.

You can edit, replace or remove any tab part or add personal notes – all changes will be seen only by you.

Personal tabs can be accessed anytime from any device, even offline.
Learn more »
Give kudos to tab author, rate the tab!
1 2 3 4 5
comments
print report bad tab
guest
Wanna post a correction for this tab? Suggest correction