Oops, an error
Loading. Please wait.

Huarache Skate bass

38 views 1 this week
no commentswrite comment
1 2 3 4 5
3 more votes to show rating
add to favorites
×
Save as Personal and add changes to this tab that will be seen only by you. Learn more ›
×
You can save this tab as Personal to edit and correct it or add notes. All changes will be seen only by you. Learn more »
launch autoscroll
font size
0
reset
guitar tuner
edit
Autoscroll
slow
fast
+/-
esc
set tempo
stop
Que onda! saludos a toda la banda amateur, el bajo siempre hace
la diferencia entre darle chido o ser pitero. Asi que bajos, a
entrenarse con un solillo funkerón. Si le das con púa olvídalo!
Esta es agilidad en dedos no pendejadas!.

Asi es, como nadie se dignaba a sacar ese bajeo,pues aqui lo
tienen, ahora que si lo sacan, pues cántenla al mismo tiempo.
El bajista de Pito Pérez lo hace (los he visto en vivo) sin
ningún error. Si antes tocaban covers de los Red Hot, imágínate!,
bien Flea ese wey!. Próximo será el bajeo de Payaso de Molotov
del tributo a José José. Para toda la banda que goza del slap
y el doble bombo, aqui mi trabajo.

Zas plas, basta de palabrerías y a darle.

----------------------------------------------------------------

Parado en una esquina, chécatelo bien...


G----------------  2 veces
D----------------
A----------------
D---0-3---0-3-5--


Le quedó el saco?!


G----------------------------
D----------------------------
A--5--5/8---10-10h11p10------
D----------------------------


VERSOS


G--------------------------------------------
D--------------------------------------------
A---------5-------------------------3-3------
D---0-0-0-------0-3-4-4_5-5-------3-----5_3--

G------------------------------
D------------------------------
A------------------------------
D---3-----3--3----0-3-6-5-3-0--

Otra variación (de hecho las hace, escuchen bien)

G--------------------------------------------
D--------------------------------------------
A---------5-------------------------3-3------
D---0-0-0-------0-3-4-4_5-5-------3-----5_3--


G----------------------7---------
D------------------------7-------
A--------------------------------
D---3-----3-3----3/12-------5/3--


BRIDGE


G------------
D------------
A------------
D---6--5--3--


VERSOS (Donde está el huarache?!)

CORO:

...parado en una esquina!, saltando como...


G----------------  2 veces
D----------------
A----------------
D---0-3---0-3-5--


Le quedó el saco!


G---------------------------------------
D---------------------------------------
A--5--5/8---10-10h-11p-10---------------
D------------------------------6--5--2--


Huarache skate!


G-------------------------------------------------------------
D-------------------------------------------------------------
A-------------------------------------------------------------
D---6--5--3-----0-3--0-3-5---0-3-3---3-5-3-0-----0-3---0-3-5--

G--------
D--------
A--------
D-6--5--3-


Mini solo


G-----------------------------------------
D----------------------------------------- 3 Veces
A------5-5----3----------3-----3-----3/5--
D---0-------0---------0-----0-----0-------

G---------------------------------------
D---------------------------------------
A-----5-5----3---------------------3/5--
D--0-------0--------0-3---0-5---3-------


G-----------------------------------------
D----------------------------------------- 4 Veces
A------5-5----3----------3-----3-----3/5--
D---0-------0---------0-----0-----0-------

E-----------         -----------
D----------- 4 veces -----------
A-----------         -----------
D--6--5--3--         --12/0-----


VERSOS (Donde está el huarache?)


Pre coro:

...Donde te vo´ a encontrar


G---------------------------------------------
D--------------------------------------------- 2 Veces
A---5-------5---------------------------------
D------0-------0------0-5----3--3----3---2/0--


VERSOS (...Donde está el huaracheee!)


Final:

G--------------  2 Veces
D--------------
A--------------
D---6---5---3--


G----------------
D----------------
A----------------
D---6---5---0----


Después de los batacazos

...Huarache skate!!!

G----------------
D----------------
A----------------
D---0------------


Es todo.
Recurden dejar sonar las notas entre cada fin de coro.


Gracias, cualquier correción mándenla a mi correo por favor.
Gente, a ponerse las pilas, hay que sacar tablaturas de Real
de Catorce, hay canciones excelentes.

Saludos a Manzanillo, Colima. También a los cuates de la Fac.
de Med. de la U de G (Cd. Guzmán).
Suggest correction
Creating personal tab
Creating personal tab
You can edit any tab online and save it as your Personal.

You can edit, replace or remove any tab part or add personal notes – all changes will be seen only by you.

Personal tabs can be accessed anytime from any device, even offline.
Learn more »
Give kudos to tab author, rate the tab!
1 2 3 4 5
comments
print report bad tab
guest
Wanna post a correction for this tab? Suggest correction