Oops, an error
Loading. Please wait.

Jamaica tab

29 views 1 this week
no commentswrite comment
1 2 3 4 5
3 more votes to show rating
add to favorites
×
Save as Personal and add changes to this tab that will be seen only by you. Learn more ›
×
You can save this tab as Personal to edit and correct it or add notes. All changes will be seen only by you. Learn more »
launch autoscroll
font size
0
reset
how to read this tab
guitar tuner
edit
Autoscroll
slow
fast
+/-
esc
set tempo
stop
titulo: jamaica
 autor: pito perez
 album: con mas poder
 transcribe: sergio gonzález hilerio

 esta tablatura es exacta solo es cosa de practicarla y entenderla.
 
 intro (con un efecto limpio con reverb)
 
 e---9/10--9-9/10---9-7-5----9/10--9-9/10////17\\\\--9-7-5|
 B---9/10--9-9/10---9-7-5----9/10--9-9/10------------9-7-5|
 G--------------------------------------------------------|
 D--------------------------------------------------------|
 A--------------------------------------------------------|
 E--------------------------------------------------------|
 

 e----10-10-10-10-5-5-5-5|-¡¡¡hello!!!
 B----10-10-10-10-5-5-5-5|
 G-----------------------| se repite 4 veces la cuarta es tocada mas suave
 D-----------------------|
 A-----------------------|
 E-----------------------|
  
 en esta parte lleva una distorcion un poco alta y procura que no sea muy aguda 
 si tocas con humbuckers un overdrive serviria aunque si tocas con pastillas sencillas
 se necesita una distor mas elevada.

 e----------------|
 B----------------|
 G----------------|
 D----------------|
 A----------------|
 E--5-5-7-7-9-9-10|

 E------|-¡¡¡hello!!!  (1)
 B------|
 G------|
 D--7-7-|
 A--5-5-|
 E------|
 
 
 E---------------|     (2)
 B---------------|
 G---------------|             los pasos 1,2y 3 se repiten dos veces
 D--------2-----2|     
 A----0-0-0-0-0-0|
 E---------------|
      * *   * *  
      p.m   p.m

 E----------------|    (3)
 B----------------|
 G----------------|
 D----------------|
 A----------------|
 E--5-5-7-7-9-9-10|
 

  (con un efecto limpio con reverb)

 e---9/10--9-9/10---9-7-5----9/10--9-9/10////17\\\\--9-7-5|
 B---9/10--9-9/10---9-7-5----9/10--9-9/10------------9-7-5|
 G--------------------------------------------------------|
 D--------------------------------------------------------|
 A--------------------------------------------------------|
 E--------------------------------------------------------|


 e----10-10-10-10-5-5-5-5|-¡¡¡hello!!!
 B----10-10-10-10-5-5-5-5|
 G-----------------------| se repite 4 veces la cuarta es tocada mas suave
 D-----------------------|
 A-----------------------|
 E-----------------------|

  con distor (en esto ultimo lleva algunas variaciones 
              por eso es importante que veas todo el tab)

 e----------------|
 B----------------|
 G----------------|
 D----------------|
 A----------------|
 E--5-5-7-7-9-9-10|


 E------|-¡¡¡hello!!!  (1)
 B------|
 G------|
 D--7-7-|
 A--5-5-|
 E------|


 E---------------|     (2)    
 B---------------|
 G---------------|              los pasos 1,2y 3 se repiten dos veces        
 D--------2-----2|     
 A----0-0-0-0-0-0|
 E---------------|
      * *   * *  
      p.m   p.m


 E----------------|    (3)
 B----------------|
 G----------------|
 D----------------|
 A----------------|
 E--5-5-7-7-9-9-10|


 
 E------|-¡¡¡hello!!!  (4)
 B------|
 G------|
 D--7-7-|
 A--5-5-|
 E------|


 E---------------------------|     (5)    
 B---------------------------|
 G---------------------------|              los pasos 4 y 5 se repiten dos veces        
 D--------2-----2-----2-----2|     
 A----0-0-0-0-0-0-0-0-0-0-0-0|
 E---------------------------|
      * *   * *   * *
      p.m   p.m   p.m


 E------|-¡¡¡hello!!!  (6)
 B------|
 G------|
 D--7-7-|
 A--5-5-|
 E------|


 E------|              (7)
 B------|
 G--2-2-|                            los pasos 6 y 7 se repiten 2 veces                
 D--2-2-|
 A--0-0-|
 E------|

 y este es el final
 
 e--------------------|
 B--------------------|
 G--7----7-7-7-7-7-2//|
 D--7----7-7-7-7-7-2//|
 A--5----5-5-5-5-5-0//|
 E--------------------|

 eso es todo la neta esta re facil nomas es cosa de ponerla en practica y seguir la rola 
 de hay en fuera eso es todo a hecharle ganas!!!!!!
Suggest correction
Creating personal tab
Creating personal tab
You can edit any tab online and save it as your Personal.

You can edit, replace or remove any tab part or add personal notes – all changes will be seen only by you.

Personal tabs can be accessed anytime from any device, even offline.
Learn more »
Give kudos to tab author, rate the tab!
1 2 3 4 5
comments
print report bad tab
guest
Wanna post a correction for this tab? Suggest correction