Oops, an error
Loading. Please wait.

Locamente bass

137 views 1 this week
no commentswrite comment
1 2 3 4 5
3 more votes to show rating
add to favorites
×
Save as Personal and add changes to this tab that will be seen only by you. Learn more ›
×
You can save this tab as Personal to edit and correct it or add notes. All changes will be seen only by you. Learn more »
launch autoscroll
font size
0
reset
guitar tuner
edit
Autoscroll
slow
fast
+/-
esc
set tempo
stop
----------------
----------------
----------------
4-5-7--5-4-5-4-2
Locamente enamorado.. (intro)

----------------------------------
----------------------------------
--------2--2-2-2----------4--4-4-4
2--2-2-2---------4--4-4-4---------
(verso)

---------------------------------
---------------------------------
--------------2-2----------------
-2-2-4-4-5-5---------------------
(verso 2)

------------------------------
--6-7-------------------------
------7-----------------------
--------0---------------------
(esto lo hace al final del verso 2)

luego se repite el verso 1 y el 2

---------------------------------
---------------------------------
---------2-2-2-2----------4-4-4-4
-2-2-2-2----------4-4-4-4--------
(coro)


----------6--------------6-----
------3-6---6-3------4-6---6-4-
--4-4------------5-5-----------
-------------------------------
(al final del coro toca eso)

-----------|---4-----2-4-|-------------|---6-----4-6
---4-----2-4|-------4----|---6-----4-6-|-------6----
-------4---|-2---2-------|-------6-----|-4---4------
-2---2-----|-------------|-4---4-------|------------
(verso 1, con los arreglos,)

luego se toca el verso 2

y en la parte de "sera el recuerdo de tu voz" se toca el verso 1
con el arreglo

entra el solo y se toca una ves el verso 1 con el arreglo
y otra ves el verso 1 sin arreglo

-------se acaba el solo de lira---------------

se toca el coro despues del solo...

y despues se toca el verso 1 sin arreglo cuando empieza otra
ves lo de
"no importando los pecados"

a continuacion va el serso 2

y luego el verso 1 con arreglo (la parte de sera el
recuerdo de tu voz)

y se toca el verso 1 hasta que se acaba la cancion

DUDAS AL: claudiold_12@
dudo que haya, esta cancion esta 100% correctas, sin errores
sin problemas, estoy aqui para corregir todos los tabs que
estan mal.
Suggest correction
Creating personal tab
Creating personal tab
You can edit any tab online and save it as your Personal.

You can edit, replace or remove any tab part or add personal notes – all changes will be seen only by you.

Personal tabs can be accessed anytime from any device, even offline.
Learn more »
Give kudos to tab author, rate the tab!
1 2 3 4 5
comments
print report bad tab
guest
Wanna post a correction for this tab? Suggest correction