Oops, an error
Loading. Please wait.

Locamente tab

version 1
version 1

Whole song

91 views 1 this week
no commentswrite comment
1 2 3 4 5
3 more votes to show rating
add to favorites
×
Save as Personal and add changes to this tab that will be seen only by you. Learn more ›
×
You can save this tab as Personal to edit and correct it or add notes. All changes will be seen only by you. Learn more »
launch autoscroll
font size
0
reset
how to read this tab
guitar tuner
edit
Autoscroll
slow
fast
+/-
esc
set tempo
stop
Me falta lo que toca la segunda guitarra eso mientras
lo sacan a partir del los acordes que tocan improvisandose
'unos pequeños riffs'.
Ninguno de los TABs en el sitio tiene el solo asi que me
dediqué a sacarlo.


^ = Se toca hacia abajo
v = Se toca hacia arriba
b = bending
r = release
p = pull-off
x = no se toca (se calla la cuerda)
/ = slide
~ = se deja sonando
PM = Palm muting


VERSO

Locamente enamorado       de ti mi bien tal como eres
e------------2-2-------2----------------------------4-4-------4
B------------2---2-----4----------------------------4---4-----6
G------------2-----2---2----------------------------4-----4---4
D------------4-------4-4----------------------------6-------6-6
A------------4---------2----------------------------6---------4
E------------2---------x----------------------------4---------x
             ^         ^                            ^         ^


las mujeres
e------------2--2--2-------4--4--4--------5--5--5--------7--7--7----
B------------2--2--2-------4--4--4--------5--5--5--------7--7--7----
G------------2--2--2-------4--4--4--------5--5--5--------7--7--7--1-
D-----4--4---4--4--4/6--6--6--6--6/7---7--7--7--7/9---9--9--9--9--2-
A-----4--4---4--4--4/6--6--6--6--6/7---7--7--7--7/9---9--9--9--9--2-
E-----2--2---2--2--2/4--4--4--4--4/5---5--5--5--5/7---7--7--7--7--0-
     PM  PM  ^  ^  v PM PM ^  ^  v PM  PM ^  ^  v PM  PM ^  ^  v

e---------------
B---------------
G---4---4-------
D-7---6---6p4---
A-------------7-
E---------------


ASÍ VA LA PRIMERA GUITARRA.
A PARTIR DEL SEGUNDO VERSO APARECE UNA SEGUNDA GUITARRA QUE
LE "RESPONDE" EN CADA RIFF A LA PRIMERA. IGUALMENTE SON PUNTEOS
SOBRE LOS ACORDES QUE TOCAN.

CORO
Cuantas veces he  sentido de cerca  tu  corazón
e-2-2-X-2-2-------2-2-X-2-2-------4-4-X-4-4----
B-2-2-X-2-2-------4-4-X-4-4-------4-4-X-4-4----
G-2-2-X-2-2-------2-2-X-2-2-------4-4-X-4-4----
D-4-4-X-4-4-------4-4-X-4-4-------6-6-X-6-6----
A-4-4-X-----------2-2-X-----------6-6-X--------
E-2-2-X---------------X-----------4-4-X--------
  ^ ^   v v       ^ ^   v v       ^ ^   v v

   y es que para mi has dormido
e--4-4-x-4-4-------5--------5---
B--6-6-x-6-6-------5--------5---
G--4-4-x-4-4-------7--------7---
D--6-6-x-6-6-------7------------
A--4-4-x-----------5------------
E------x------------------------
   ^ ^   v v       ^        v


  y aun conservo la ilusión     ohhuooo
e---------4---4----------5------------0-
B---------6--------------5-7p5--------0-
G---------4-4------------7-----7------1-
D---------6--------------7------------2-
A---------4--------------5------------2-
E-------------------------------------0-
          ^

VERSO

F#m        G#m

VERSO

SOLO

e------------------------------------------------------------------------
B------------------------------------------------------------------------
G-14-14-14-14-14-14-14-14-13-13-13-13-13-13-13-13-11-11-11-11-11-11-11-11
D------------------------------------------------------------------------
A------------------------------------------------------------------------
E------------------------------------------------------------------------

e----------------
B----------------
G-11-11-11-11-11-
D----------------
A----------------
E----------------

e--------------------------------------------------------------------
B--------------------------------------------------------------------
G-16-16-16-16-16-16-16-16-14-14-14-14-14-14-14-14-13-13-13-13-13-13--
D--------------------------------------------------------------------
A--------------------------------------------------------------------
E--------------------------------------------------------------------

e------------------------------------------------------
B---------------------------14-16b(17)r16--13-14-16----
G----------13-14-13------------------------------------
D---/14-16---------16----------------------------------
A------------------------------------------------------
E------------------------------------------------------

e-------------16-------------------------------------------------------
B-14-16-17-17b18r17--14-17-14-17b19~~----------------------------------
G--------------------------------16~~---16-17-19-19b21r19-19-17-19b21~~
D------------------------------------------------------------------19~~
A----------------------------------------------------------------------
E----------------------------------------------------------------------

Lo demás sale fácil con los arreglos anteriores.

            
            
Suggest correction
Creating personal tab
Creating personal tab
You can edit any tab online and save it as your Personal.

You can edit, replace or remove any tab part or add personal notes – all changes will be seen only by you.

Personal tabs can be accessed anytime from any device, even offline.
Learn more »
Give kudos to tab author, rate the tab!
1 2 3 4 5
comments
print report bad tab
guest
Wanna post a correction for this tab? Suggest correction