Oops, an error
Loading. Please wait.

Lupita tab

version 2
version 2

Whole song

64 views 1 this week
no commentswrite comment
1 2 3 4 5
3 more votes to show rating
add to favorites
×
Save as Personal and add changes to this tab that will be seen only by you. Learn more ›
×
You can save this tab as Personal to edit and correct it or add notes. All changes will be seen only by you. Learn more »
launch autoscroll
font size
0
reset
how to read this tab
guitar tuner
edit
Autoscroll
slow
fast
+/-
esc
set tempo
stop
por: Ramón Zamora
Este es el requinto intermedio de la canción, está super corregido 
y tiene señalados los cambios de tiempo para más fácil lectura; 
cuando quieran algún otro requinto mail a mandelbort@

...mi Lupita no me dejes jamás...

E|------------------|-------------X--|-------------------------|
A|--/7--------------|-----7--7/6--X--|---------/7--------------|
D|------6--7--6--7--|--6-------------|-------------6--7--6--7--|
G|------------------|----------------|-------------------------|
B|------------------|----------------|--/7~~/------------------|
e|------------------|----------------|-------------------------|

E|------------------------------------|-------------|
A|-------------7----------------------|-------------|
D|--7/9--7--6-------------------------|-------------|
G|-------------------------------*19--|--8/9--8--9--|
B|----------------*12-------*19-------|-------------|
e|---------------------*12------------|-------------|

E|----------------------------|----------------------------------
A|----------------------------|----------------------------------
D|----------------------------|------------------14--------------
G|----------------------------|----11b13--13b11------------------
B|--10--12--12b14--12b14b12p10h12--------------------------------
e|----------------------------|----------------------------------

E|-------------------------------------------|-------------------
A|-------------------------------------------|-------------------
D|-------------------------------------------|-------------------
G|--16b18------16--13----16b18-------16--13--|--16b18------16--13
B|---------14-------------------14-----------|---------14--------
e|-------------------------------------------|-------------------

E|-----------------------------------------------------|
A|-----------------------------------------------------|
D|-----------------------------------------------------|
G|--16b18------16--13----16b18------16--13-------------|
B|---------14-------------------14---------------------|
e|------------------------------------------11--11b12--|

...veneno, veneno tú me das...

Simbología:

/ - deslizar desde una nota hasta otra (si no tiene alguna de las 
    dos entonces es libre
X - simboliza cuando tocas una cuerda y ésta hace un ruido 
    indefinido
~ - trémolo o vibrato
* - armónico en el traste indicado
b - hacer bending desde una nota a otra, también indica regresar 
    de un bending
p - hacer pull off de una nota a otra
h - hacer hammer on 

échenle ganas, está bien fácil...
cualquier duda o aclaración a mi mail, igual si quieren otra 
tablatura ya saben que aquí está el mejor.

Ramón Zamora

            
            
Suggest correction
Creating personal tab
Creating personal tab
You can edit any tab online and save it as your Personal.

You can edit, replace or remove any tab part or add personal notes – all changes will be seen only by you.

Personal tabs can be accessed anytime from any device, even offline.
Learn more »
Give kudos to tab author, rate the tab!
1 2 3 4 5
comments
print report bad tab
guest
Wanna post a correction for this tab? Suggest correction