Oops, an error
Loading. Please wait.

Mi Lupita tab

version 1
version 1

Whole song

Interactive

196 views 1 this week
no commentswrite comment
1 2 3 4 5
3 more votes to show rating
add to favorites
×
Save as Personal and add changes to this tab that will be seen only by you. Learn more ›
×
You can save this tab as Personal to edit and correct it or add notes. All changes will be seen only by you. Learn more »
launch autoscroll
font size
0
reset
how to read this tab
guitar tuner
edit
Autoscroll
slow
fast
+/-
esc
set tempo
stop
Intro
E-0-     
B-2-
G-1-
D-3-
A-2-
E-0-

Cuando dice 'Prefiero morir...'
Cuando comienza el verso se toca lo siguiente:

e-2-2-2-2-2-2-2-2-0-0-0-0-2-4-3-2-2-0 
b-2-2-2-2-4-4-4-4-0-0-0-0-2-4-3-2-4-0
g-2-2-2-2-2-2-2-2-1-1-1-1-2-4-3-2-2-1    1er verso
D-2-2-2-2-4-4-4-4-2-2-2-2-2-4-3-2-4-2
A-4-4-4-4-2-2-2-2-2-2-2-2-4-6-5-4-2-2
E-2-2-2-2-x-x-x-x-0-0-0-0-2-4-3-2-x-0

Despues de tocar esto viene un pequeño riff
E
B
G
D
A----2--
E-2-4--4--0

Y se toca Nuevamente el intro antes de empezar
El segundo verso ya tiene una variacion
e-2-2-2-2-2-2-2-2-0-0-0-0-2-4-3-2-2-x-x-0
b-2-2-2-2-4-4-4-4-0-0-0-0-2-4-3-2-4-x-x-0
g-2-2-2-2-2-2-2-2-1-1-1-1-2-4-3-2-2-4-4-1 
D-2-2-2-2-4-4-4-4-2-2-2-2-2-4-3-2-4-4-4-2
A-4-4-4-4-2-2-2-2-2-2-2-2-4-6-5-4-2-2-2-2
E-2-2-2-2-x-x-x-x-0-0-0-0-2-4-3-2-x-x-x-0

El Coro va asi: (va con distor)
e-2-2-3-4-5-5-5-4-------------2-2-2-2-0-0
b-2-2-3-4-5-5-5-4-------------2-2-4-4-0-0 y el Riff
g-2-2-3-4-5-5-5-4-------6-6-6-2-2-2-2-1-1
D-2-2-3-4-5-5-5-4-------6-6-6-2-2-4-4-2-2
A-4-4-5-6-7-7-7-6-6-5-4-4-4-4-4-4-2-2-2-2
E-2-2-3-4-5-5-5-4-------------4-4-2-2-2-2

'yo no comprendo los minutos que eh vivido en el pasado...'
se repite esto:

El intro y luego:

e-2-2-2-2-2-2-2-2-0-0-0-0-2-4-3-2-2-0 
b-2-2-2-2-4-4-4-4-0-0-0-0-2-4-3-2-4-0
g-2-2-2-2-2-2-2-2-1-1-1-1-2-4-3-2-2-1    y el riff
D-2-2-2-2-4-4-4-4-2-2-2-2-2-4-3-2-4-2
A-4-4-4-4-2-2-2-2-2-2-2-2-4-6-5-4-2-2
E-2-2-2-2-x-x-x-x-0-0-0-0-2-4-3-2-x-0

'sin podertelo decir personalmente...'
intro y luego

e-2-2-2-2-2-2-2-2-0-0-0-0-2-4-3-2-2-x-x-0
b-2-2-2-2-4-4-4-4-0-0-0-0-2-4-3-2-4-x-x-0
g-2-2-2-2-2-2-2-2-1-1-1-1-2-4-3-2-2-4-4-1 
D-2-2-2-2-4-4-4-4-2-2-2-2-2-4-3-2-4-4-4-2
A-4-4-4-4-2-2-2-2-2-2-2-2-4-6-5-4-2-2-2-2
E-2-2-2-2-x-x-x-x-0-0-0-0-2-4-3-2-x-x-x-0

'que va pasar que va pasar'
'fue veneno veneno tu me das wow, wow, wow:
e-2-2-3-4-5-5-5-4-------------
b-2-2-3-4-5-5-5-4------------- 
g-2-2-3-4-5-5-5-4-------6-6-6- 
D-2-2-3-4-5-5-5-4-------6-6-6-
A-4-4-5-6-7-7-7-6-6-5-4-4-4-4-
E-2-2-3-4-5-5-5-4-------------
mi lupita no me dejes jamaaaaaaas aaaaaas(abraham sube su tonoo de voz y va esto)

e-2-2-2-2-5-5-----
b-2-2-4-4-5-5-----
g-2-2-2-2-7-7-6-6- 
D-2-2-4-4-7-7-6-6-
A-4-4-2-2-5-5-4-4-
E-2-2-x-x-5-5-----
'mi lupita no me dejas jamas'
e-2-2-2-2-0-0
b-2-2-4-4-0-0
g-2-2-2-2-1-1 y el Riff
D-2-2-4-4-2-2
A-4-4-2-2-2-2
E-2-2-x-x-2-2

y entra el solo.
el solo no lo pongo por que en la otra tablatura ya viene muy bien elaborado.
acabando el solo se entra asi
'fue veneno...'
e-4-3-2
b-4-3-2
g-4-3-2
D-4-3-2
A-6-5-4
E-4-3-2

'fue veneno veneno tu me das wow, wow, wow:
e-2-2-3-4-5-5-5-4-------------
b-2-2-3-4-5-5-5-4------------- 
g-2-2-3-4-5-5-5-4-------6-6-6- 
D-2-2-3-4-5-5-5-4-------6-6-6-
A-4-4-5-6-7-7-7-6-6-5-4-4-4-4-
E-2-2-3-4-5-5-5-4-------------
mi lupita no me dejes jamaaaaaaas aaaaaas(abraham vuelve a subir su tonoo de voz y va esto)

e-2-2-2-2-5-5-----
b-2-2-4-4-5-5-----
g-2-2-2-2-7-7-6-6- 
D-2-2-4-4-7-7-6-6-
A-4-4-2-2-5-5-4-4-
E-2-2-x-x-5-5-----

el final es:
'mi lupita no me dejes...'
e-2-2-2-2-2-2-2-2-
b-2-2-2-2-4-4-4-4-
g-2-2-2-2-2-2-2-2- 
D-2-2-2-2-4-4-4-4-  x3
A-4-4-4-4-2-2-2-2-
E-2-2-2-2-x-x-x-x-

'jamas uuwuuuuu uwuwuwuuwwwwwweuuuuuuuuuuu'

e-0-0-0-0-0
b-0-0-0-0-0
g-1-1-2-2-1
D-2-2-2-2-2
A-2-2-0-0-2
E-0-0-0-0-0

Cualquier duda o correccion haganmenla saber es identica lo unico es que ustedes
tentran que escuchar la cancion para sacar el ritmo que sta muy facil.
tambien quiero dedicar esta transcripcion a novia hermosa que sin ella no me podria inspirar 
para seguir tocando la Guitarra. Gracias Rosa Margarita Fernandez Medina. Te amo

            
            
Suggest correction
Creating personal tab
Creating personal tab
You can edit any tab online and save it as your Personal.

You can edit, replace or remove any tab part or add personal notes – all changes will be seen only by you.

Personal tabs can be accessed anytime from any device, even offline.
Learn more »
Give kudos to tab author, rate the tab!
1 2 3 4 5
comments
print report bad tab
guest
Wanna post a correction for this tab? Suggest correction