Oops, an error
Loading. Please wait.

Mi Lupita chords

version 2
version 2

Whole song

Interactive

1,190 views 12 this week
no commentswrite comment
1 2 3 4 5
3 more votes to show rating
add to favorites
×
Save as Personal and add changes to this tab that will be seen only by you. Learn more ›
×
You can save this tab as Personal to edit and correct it or add notes. All changes will be seen only by you. Learn more »
launch autoscroll
font size
0
reset
transpose
0
reset
simplify chords
display chords
guitar tuner
edit
Autoscroll
slow
fast
+/-
esc
set tempo
stop
Strumming
There is no strumming pattern for this song yet. and get +5 IQ
bueno chekense esta cancion de pito perez esta bn perra estuve
chekando las otras y esta es la mas completa esta al 99% bien
chekensela:
nota: el primer acorde de la cancion no se como se llama asi q le
vamos a poner la7m.


e-------------------
b-2------------------
g-0------------------
d-2------------------
a-1------------------
E-------------------


Am7   F#
      Prefiero morir

B7               E F# G#
    a no estar contigo

    G    F#
no puedo vivir feliz

B7      E  A  E
     sin ti

Am7           F#
No puedo pedir

B7            E  F#  G#
    que tu te vayas

G         F#
por que si tu te vas
B7            D
    que va a pasar

           E
que va a pasar

  F#     F#-G-G#-A
Veneno,

   A        G#    G#   SOL   F#
veneno tu me das     aah    aah   aah

    F#          B7     E A  E
mi Lupita no me dejes jamás


Am7
          F#
Yo no comprendo

B7       E             F#         G#
    los minutos que he vivido en el pasado

           G            F#                    B7
y ahora entiendo que el momento más hermoso de mi vida

                     E   A   E
lo he pasado junto a ti

               F#   B7           E  F#  G#
Sin podértelo decir      personalmente

G        F#      B7
es que tu frenesí

            D
  me va a matar

            E
 me va a matar

  F#   F#-G-G#-A
Veneno

  A         G#    G#  SOL   F#
veneno tu me das     aah   aah   aah

    F#         B7     D   C#
mi lupita no me dejes jama - as

    F#     F#-G-G#-A
mi lupita

  A         G#       G#    SOL    F#
veneno tu me das        aah     aah    aah

    F#          B7     E   A   E
mi lupita no me dejes jamás

solo:

e-------------------------------------------------------12*-------
b---------------------------------------------------12*-----7*-9~~
g----------------------11~~~--------------------------------------
d----6-7-6-7-6-------------------6-7-6-7-7/9-7-6------------------
a-/7-----------7-7/9----------/7-----------------7----------------
E-----------------------------------------------------------------


e-----------------------------------------------------------9----
b----------10-12-12b14--12b14r12------------9--------12b14-------
g-/9-8~-9-------------------------11b12r11-----11p9--------------
d----------------------------------------------------------------
a----------------------------------------------------------------
E----------------------------------------------------------------


e--------------9--------------9--------------9--------------9----
b--12p9--12b14----12p9--12b14----12p9--12b14----12p9--12b14------
g----------------------------------------------------------------
d----------------------------------------------------------------
a----------------------------------------------------------------
E----------------------------------------------------------------
                                   SiMbOlOs:--;)
                                    /:slide
e---------11b13~~~~-               ~~:vibrato
b---12p9------------                *:armonico
g-------------------                b:bending
d-------------------                r:realse
a-------------------                p:pull off

G#-G-F#      F#-SOL-SOL#-A
          Veneno

   A        G#     G#    SOL   F#
veneno tu me das      aah     aah   ahh

    F#          B7    D   C#
mi lupita no me dejes jama - as

    F#    F#-G-G#-A
mi lupita

  A         G#   G#    SOL    F#
veneno tu me das    aah     aah    aah


    F#          B7
mi lupita no me dejes

    F#          B7
mi lupita no me dejes

    F#          B7
mi lupita no me dejes

   E A  E    A    MI

bueno esta cancion se va por todos mis compas y a todos los q me
han apollado chido duda o aclaraciones a raulx47@ ;)
Suggest correction
Creating personal tab
Creating personal tab
You can edit any tab online and save it as your Personal.

You can edit, replace or remove any tab part or add personal notes – all changes will be seen only by you.

Personal tabs can be accessed anytime from any device, even offline.
Learn more »
Give kudos to tab author, rate the tab!
1 2 3 4 5
comments
print report bad tab
guest
Wanna post a correction for this tab? Suggest correction