Oops, an error
Loading. Please wait.

Pito Perez bass

35 views 1 this week
no commentswrite comment
1 2 3 4 5
3 more votes to show rating
add to favorites
×
Save as Personal and add changes to this tab that will be seen only by you. Learn more ›
×
You can save this tab as Personal to edit and correct it or add notes. All changes will be seen only by you. Learn more »
launch autoscroll
font size
0
reset
guitar tuner
edit
Autoscroll
slow
fast
+/-
esc
set tempo
stop
Empiesa el bajo junto con el teclado
E--------------------|
A--2-0---------7~----|
D--------------------|
G--------------------|

E-----------------------|--~12345678910-|
A--2-5-2-5-------2-3-4--|---------------| SE REPITE 2 VECES Y ESTE                                            
D-----------------------|---------------| TAB VA ASTA EL FINAL
G-----------2-4---------|---------------|

E-------------------------222------|
A--2-5-2-5-------2-3-4--------0----|
D-------------------------------0--|
G-----------2-4--------------------|
                                       SE REPITE 2 VECES EN EL 
E-------------------------222------|   VERSO
A--2-5-2-5-------2-3-4--------6-4--|
D----------------------------------|
G-----------2-4--------------------|

E-------------------------222------|   
A--2-5-2-5-------2-3-4--------6-4--|
D----------------------------------|
G-----------2-4--------------------|
                                       SE REPITE 2 VECES CON EL DI
E-------------------------222------|   STOR DE LA GUITARRA
A--2-5-2-5-------2-3-4--------0----|
D-------------------------------0--|
G-----------2-4--------------------|

ERES LO QUE YO ANDABA .........
E---------------2-2-----------|
A--2--22--2-3-4------0--------|
D----------------------0------|
G-----------------------------|

                                 SE RE PITE 2 VECES EN EL VERSO    
E---------------2-2--2--------|
A--2--22--2-3-4--------6-4----|
D-----------------------------|
G-----------------------------|

DESPUES EN EL SEGUNDO BAJEO SE CORTA A LA MITAD ASI:
E---------------|------------------------------------------------|
A--2--22--2-3-4-|-------------------2-3-4-------------------2-3-4|
D---------------|-2-3-4-------2-3-4-------2-3-4-------2-3-4------|
G---------------|-------2-3-4-------------------2-3-4------------|


EMBOLSASTE 
E----------------------------|
A---------------2-3-4--------|
D---------2-3-4-------2-3-4--|
G---2-3-4--------------------|
MI VIDA
E---------------------2------|
A---------------2-3-4--------|
D---------2-3-4--------------|
G---2-3-4--------------------|
SE REPITE EL BAJEO IGUAL QUE EN LA PRIMERA PARTE
...TENGAS QUE OLVIDAR
E-2--2-3-4--------------2-2----------|
A-----------2-4--4-2---2-------------|
D---------------------4--------------|
G------------------------------------|

E-2--2-3-4--------------2-2----------|
A-----------2-4--4-2-----------------|
D---------------------2345-5-5-2---5-|
G--------------------------------2---|

E-2--2-3-4--------------2-2----------|
A-----------2-4--4-2---2-------------|
D---------------------4--------------|
G------------------------------------|
E-2--2-3-4-------------|
A-----------2-4--4-2---|
D----------------------|
G----------------------|
E------------------------------------------------|
A-------------------2-3-4-------------------2-3-4|
D-------------2-3-4-------2-3-4-------2-3-4------|
G-------2-3-4-------------------2-3-4------------|

EMBOLSASTE 
E----------------------------|
A---------------2-3-4--------|
D---------2-3-4-------2-3-4--|
G---2-3-4--------------------|
MI VIDA
E---------------------2------|
A---------------2-3-4--------|
D---------2-3-4--------------|
G---2-3-4--------------------|
REQUINTO DE LA GUITARRA
E-------------------------222------|   
A--2-5-2-5-------2-3-4--------6-4--|
D----------------------------------|
G-----------2-4--------------------|

                                       
E-------------------------222------| 
A--2-5-2-5-------2-3-4--------0----|
D-------------------------------0--|
G-----------2-4--------------------|

E-------------------------222------|   
A--2-5-2-5-------2-3-4--------6-4--|
D----------------------------------|
G-----------2-4--------------------|
                                     
E------------------------------------------| 
A--2-5-2-5-------2-3-4---2345678-8-8--5---8|
D---------------------------------------5--|
G-----------2-4----------------------------|

ERES PITO PEREZ..
E-------------------------222------|
A--2-5-2-5-------2-3-4--------0----|
D-------------------------------0--|
G-----------2-4--------------------|
                                        
E-------------------------222------|   
A--2-5-2-5-------2-3-4--------6-4--|
D----------------------------------|
G-----------2-4--------------------|

E-------------------------222------|
A--2-5-2-5-------2-3-4--------0----|
D-------------------------------0--|
G-----------2-4--------------------|
                                        
E-------------------------222--------|   
A--2-5-2-5-------2-3-4--------6-4----|
D----------------------------------3-|
G-----------2-4----------------------|

E--------4--012--|
A--4-2-0---------|
D----------------|
G----------------|

CUALQUIER DUDA O SUGERENCIA A blar_nse@

            
            
Suggest correction
Creating personal tab
Creating personal tab
You can edit any tab online and save it as your Personal.

You can edit, replace or remove any tab part or add personal notes – all changes will be seen only by you.

Personal tabs can be accessed anytime from any device, even offline.
Learn more »
Give kudos to tab author, rate the tab!
1 2 3 4 5
comments
print report bad tab
guest
Wanna post a correction for this tab? Suggest correction