Oops, an error
Loading. Please wait.

Western tab

version 2
version 2

Whole song

131 views 1 this week
no commentswrite comment
1 2 3 4 5
3 more votes to show rating
add to favorites
×
Save as Personal and add changes to this tab that will be seen only by you. Learn more ›
×
You can save this tab as Personal to edit and correct it or add notes. All changes will be seen only by you. Learn more »
launch autoscroll
font size
0
reset
how to read this tab
guitar tuner
edit
Autoscroll
slow
fast
+/-
esc
set tempo
stop
LA ROLA EMPIEZA CON DOS RASGUEOS

    C7   B5
E---X----X---|
A---3----2---|
D---5----4---|
g---3----2---|
b---5----2---|
e---3----2---|


LUEGO LA GUITARRA Y EL CHIFLIDO JUNTOS:

E-0---0-0---0-3---3-5---5--|
A---2-----2-----2-----4----|
D--------------------------|
g--------------------------|
b--------------------------|
e--------------------------|  X 3

E-0---0-0---0-3---3-5-|
A---2-----2-----2-----|
D---------------------|
g---------------------|
b---------------------|
e---------------------| AQUI SE PARA LA GUITARRA Y EMPIEZA A CANTAR

ESTOY PENSANDO EN VOZ....

E-0---0-0---0-3---3-5---5--|
A---2-----2-----2-----4----|
D--------------------------|
g--------------------------|
b--------------------------|
e--------------------------|  X 3

E-0---0-0---0-3---3-5-|
A---2-----2-----2-----|
D---------------------|
g---------------------|
b---------------------|
e---------------------| AQUI SE PARA LA GUITARRA Y EMPIEZA A CANTAR

ME PREGUNTO SI ALGUN DIA....

E-0---0-0---0-3---3-5---5--|
A---2-----2-----2-----4----|
D--------------------------|
g--------------------------|
b--------------------------|
e--------------------------|  X 3

E-0---0-0---0-3---3-5-|
A---2-----2-----2-----|
D---------------------|
g---------------------|
b---------------------|
e---------------------| AQUI SE PARA LA GUITARRA Y EMPIEZA A CANTAR

UN ACORDE MAS....

E-5---5-------3------------|
A---7---3-------2-5-5------|
D---------2-5---------4-7--|
g--------------------------|
b--------------------------|
e--------------------------|  X 4

E---X--X---|
A---3--2---|
D---5--4---|
g---3--2---|
b---5--2---|
e---3--2---|
 

VOZ QUEREIS TOMEIS...         AY QUE CARAY, QUE CARAY, Y QUE CARAY

E---------------------------|------------------------------------|
A---------------------------|------------------------------------|
D---------------------------|------------------------------------|
g---------------------------|------------------------------------|
b---------------------------|------------------------------------|
e-12-12-10-10-9-9-9-8-8-7---|--12-12-10-12-12-10-12-14-12-10-12--| X 4 

*EN LA CUARTA VEZ QUE SE REPITE NOMAS SE TOCA LA PRIMERA PARTE

EMPIEZA EL CHIFLIDO OTRA VEZ CON LA GUITARRA Y SE REPITE 2 VECES, EN LA SEGUNDA SE PARA EN 'LA'

ESTOY PENSANDO EN VOZ....

-VOZ QUEREIS, TOMEIS,
PERO JAMAS QUEREIS
AY QUE CARAY, QUE CARAY, Y QUE CARAY-(4)

    E5   D5  C#5   A5
E-----------------5555-----|
A--7777-5555-4444-7777-----|
D--9999-7777-6666----------|
g--------------------------|
b--------------------------|
e--------------------------| x 6

REQUINTO

E--------------------------|
A--------------------------|
D--------------------------|
g-7h9-7h9-7h9-7h9-7h9------|
b--------------------------|
e--------------------------|  x 2

E------|--------------------------------|
A------|--------------------------------|
D------|--------------------------------|
g-9h12-|-10h12-10h12-10h12-10h12-10h12--|
b------|--------------------------------|
e------|--------------------------------| x 2

E------------------------------------------------|
A------------------------------------------------|
D------------------------------------------------|
g------------------------------------------------|
b-10h12-12-10-12-10----12-10-12-12-10-12-10------| 
e-------------------12----------------------12---|

E-----------------------------|------------------------------|
A-----------------------------|------------------------------|
D-----------------------------|------------------------------|
g-----------------------------|------------------------------|
b-------------15-12-10-12-12--|------------------------------|
e-12-12-15-12-----------------|-12-12-15-12-10-12-12-12-12---|

PARA TI PARA MI UN CIELO ETERNO(3)
PARA TI PARA MI...
VOS QUEREIS TOMEIS PERO JAMAS QUEREIS
AY QUE CARAY QUE CARAY Y QUE CARAY(2)

    E5   D5  C#5   A5
E-----------------5555-----|
A--7777-5555-4444-7777-----|
D--9999-7777-6666----------|
g--------------------------|
b--------------------------|
e--------------------------| x 8

VOS  QUEREIS   TOMEIS   PERO   JAMAS   QUEREIS

   E5 D5 C#5  A5  B5
E-------------55--7----|
A--77-55-4444-77--9----|
D--99-77-6666----------|
g----------------------|
b----------------------|
e----------------------|

FINAL

                        A7
E-----------------------5---|
A-----------------------7---|
D-5h7-------------------5---|
g-----5-7-9-7-5-7-7h9---6---|
b-----------------------5---|
e-----------------------5---|


ESA ES TODA LA ROLA
EL REQUINTO NO ESTA IGUALITO PERO MAS O MENOS SE OYE IGUAL.

            
            
Suggest correction
Creating personal tab
Creating personal tab
You can edit any tab online and save it as your Personal.

You can edit, replace or remove any tab part or add personal notes – all changes will be seen only by you.

Personal tabs can be accessed anytime from any device, even offline.
Learn more »
Give kudos to tab author, rate the tab!
1 2 3 4 5
comments
print report bad tab
guest
Wanna post a correction for this tab? Suggest correction