Oops, an error
Loading. Please wait.

Por Qué Te Demoras tab

by Plan B
34 views 1 this week
no commentswrite comment
1 2 3 4 5
3 more votes to show rating
add to favorites
×
Save as Personal and add changes to this tab that will be seen only by you. Learn more ›
×
You can save this tab as Personal to edit and correct it or add notes. All changes will be seen only by you. Learn more »
launch autoscroll
font size
0
reset
how to read this tab
guitar tuner
edit
Autoscroll
slow
fast
+/-
esc
set tempo
stop
Espero que les guste!

POR QUÉ TE DEMORAS-PLAN B

ACORDES GENERALES
|Dm|D5|Gm|Dm D5|

D5=A7

INTRO (Varias veces):

Dm
e|--------1--------1-|
b|--------3--------3-|
g|------------2------|
d|-0-----------------|
a|-------------------|
E|-------------------|

Yo lo que quiero es compartir contigo un rato
No te cohíbas que se nos acaba la noche
Por qué te demoras
e|1-1-0----0-|
b|------3-3--|

ESTRIBILLO (CHENCHO):

Sé que quieres, se te nota
e|1-0---0---1-0---0|
b|----3---------3--|

Al hablarme, al mirarme
e|3-3-3-3-1-0---3|
b|------------3--|

No puede? engañarme
e|1-1-0---1--|
b|------3---3|

aeh aeh aeh aeh aeh aeh
e|3-3-3-3-1-0---3|
b|------------3--|

e|1-0----|
b|----3-3|

aeh aeh aeh aeh
e|3-3-3-3-1-0---3|
b|------------3--|

Con el Plan B
e|1-0----|
b|----3-3|


Sé que quieres, se te nota
e|1-0---0---1-0---0|
b|----3---------3--|

Al hablarme, al mirarme
e|3-3-3-3-1-0---3|
b|------------3--|

No puede? engañarme
e|1-1-0---1--|
b|------3---3|

MALDY:
Amor a primera vista
Con esa chica de revista
Con el estilista así como la de maíta
Le gusta que le insista
Aunque se resista
Ella no es como se pinta

Ella dice que sabe, si sabe yo quiero saber
Si sabe como me imagino, sabe, me la voy a comer
Ella dice que sabe cuando lo dice me da hambre
Si se imagina me imagino nos vamos a comer

Si yo pudiera saber lo que hay en tu mente
e|-1-1-1-1-0-0-0-0-----------|
b|-----------------3-3-1-3---|
g|-------------------------2-|

Si tu mirada me dice que eres caliente
e|-1-1-1-1-0-0-0-0-----------|
b|-----------------3-3-1-3---|
g|-------------------------2-|


Que te pones tímida delante de la gente
e|-1-1-1-1-0-0-0-0-----------|
b|-----------------3-3-1-3---|
g|-------------------------2-|

Simulando
e|-1-1-0-3-|
b|---------|
g|---------|

Que hace mucho tú me gustas es evidente
e|-1-1-1-1-0-0-0-0-----------|
b|-----------------3-3-1-3---|
g|-------------------------2-|

Olvídate de lo que tus amigas dicen
e|-1-1-1-1-0-0-0-0-----------|
b|-----------------3-3-1-3---|
g|-------------------------2-|

Que sus palabras no son suficientes
e|-1-1-1-1-0-0-0---------|
b|---------------3-1-3---|
g|---------------------2-|

Por qué te demoras, por qué te detienes
e|-1-1-1-1-0-0-0-0----------|
b|------------------3-1-3---|
g|------------------------2-|


--ESTRIBILLO--

MALDY:
Soy el que la explota
Que cantando te sube la nota
Cuando el Plan B canta, el party se alborota
y todas las féminas se ponen bien loca?
Locas, toas vinieron a lucir su ropa

Se pone linda, me gusta como ella se pinta
Se hace la dificil y después se lo chi...
En la disco o en los carros o en cualquier lugar
Lo importante es complacerte y también aventurar

Sólo invítala, que yo se que a ella le va a gustar
llévatela a pasear, que yo sé que es liberal
En el sexo inmortal, con su flow natural
Como culebra, con una furia bestial

ESTRIBILLO (CHENCHO):

Sé que quieres, se te nota
e|1-0---0---1-0---0|
b|----3---------3--|

Al hablarme, al mirarme
e|3-3-3-3-1-0---3|
b|------------3--|

No puede? engañarme
e|1-1-0---1--|
b|------3---3|

aeh aeh aeh aeh aeh aeh
e|3-3-3-3-1-0---3|
b|------------3--|

e|1-0--1--|
b|----3--3|

(Y andamos con el Artillery)

aeh aeh aeh aeh
e|3-3-3-3-1-0---3|
b|------------3--|

(En House Of Pleasure) (Ok)

Con el Plan B
e|1-0----|
b|----3-3|

(con Pina Records)

Sé que quieres, se te nota
e|1-0---0---1-0---0|
b|----3---------3--|

(Se que quieres, se te nota)

Al hablarme, al mirarme
e|3-3-3-3-1-0---3|
b|------------3--|

No puede? engañarme
e|1-1-0---1--|
b|------3---3|

Trabajando con los mejores
Nelly el arma secreta
con el Duo del Sex
Chencho y Maldy
Plan B
Suggest correction
Creating personal tab
Creating personal tab
You can edit any tab online and save it as your Personal.

You can edit, replace or remove any tab part or add personal notes – all changes will be seen only by you.

Personal tabs can be accessed anytime from any device, even offline.
Learn more »
Give kudos to tab author, rate the tab!
1 2 3 4 5
comments
print report bad tab
guest
Wanna post a correction for this tab? Suggest correction