Oops, an error
Loading. Please wait.

Un Buen Día tab

157 views 3 this week
no commentswrite comment
1 2 3 4 5
3 more votes to show rating
add to favorites
×
Save as Personal and add changes to this tab that will be seen only by you. Learn more ›
×
You can save this tab as Personal to edit and correct it or add notes. All changes will be seen only by you. Learn more »
launch autoscroll
font size
0
reset
how to read this tab
guitar tuner
edit
Autoscroll
slow
fast
+/-
esc
set tempo
stop
NOTACION

>= mantener el sonido

------------------------------------------------------------
------------------------------------------------------------

FORMACION DE ACORDES

A?    (x02255)
Asus2 (002200)
D     (xx0232)
Dsus2 (xx0230)
Dsus4 (xx0233)
Em    (022000)
Em/G  (022003)
Em/Gb (022002)
G     (3x0003)
G?    (3x0033)
G/A   (3x0005)
G/D   (3x0032)
G/Gb  (3x0002)

------------------------------------------------------------
------------------------------------------------------------

AFINACION

Normal (standar)

------------------------------------------------------------
------------------------------------------------------------


-----
INTRO (x2)
-----


  D           Dsus2    D  Dsus4
--------------------------------------------
-----7--------5--------7-----5--------5-----
--------7--------7--------7-----7--------7--
--0--------0--------0--------------0--------
--------------------------------------------
--------------------------------------------


-------
VERSO 1
-------


  D        Dsus2    D        Dsus4
-----------------------------------------------
--7--------5--------7--------5--------7--------
-----7--------7--------7--------7--------7-----
--------0--------0--------0--------0--------0--
-----------------------------------------------
-----------------------------------------------
Me he despertado casi a las diez, y me he que-


  D        Dsus2    D        Dsus4
-----------------------------------------------
--7--------5--------7--------5--------7--------
-----7--------7--------7--------7--------7-----
--------0--------0--------0--------0--------0--
-----------------------------------------------
-----------------------------------------------
-dado en la cama más de tres cuartos de...


  G        G?             G/Gb  G/D
-----------------------------------------------
--0--------7--------5--------0--------5--------
-----7--------7--------7--------7--------7-----
--------0--------0--------0--------0--------0--
-----------------------------------------------
-----------------------------------------------
...hora


  G        G?
-----------------------------
--0--------7--------5--------
-----7--------7--------7-----
--------0--------0--------0--
-----------------------------
-----------------------------
Y ha merecido la pe-


  D                 Dsus2    Dsus4
-----------------------------------------------
--7--------5--------7--------5--------7--------
-----7--------7--------7--------7--------7-----
--------0--------0--------0--------0--------0--
-----------------------------------------------
-----------------------------------------------
-na


  D                 Dsus2    Dsus4
--------------------------------------------
--5--------7--------7--------5--------7-----
-----7--------7--------7--------7--------7--
--------0--------0--------0--------0--------
--------------------------------------------
--------------------------------------------


-------
VERSO 2
-------


  D     Dsus2 D        Dsus4
-----------------------------------------
--------5-----7--------5--------7--------
--7--7-----7-----7--------7--------7-----
--0--0-----0--------0--------0--------0--
-----------------------------------------
-----------------------------------------
Ha entrado el sol por la ventana, y han bri-


  D        Dsus2    D        Dsus4
-----------------------------------------------
--7--------5--------7--------5--------7--------
-----7--------7--------7--------7--------7-----
--------0--------0--------0--------0--------0--
-----------------------------------------------
-----------------------------------------------
-llado en el aire algunas motas de...


  G        G?             G/Gb  G/D
-----------------------------------------------
--0--------7--------5--------0--------5--------
-----7--------7--------7--------7--------7-----
--------0--------0--------0--------0--------0--
-----------------------------------------------
-----------------------------------------------
...polvo


  G        G?
-----------------------------
--0--------7--------5--------
-----7--------7--------7-----
--------0--------0--------0--
-----------------------------
-----------------------------
He salido a la venta-


  D                 Dsus2    Dsus4
------------------------------------------
--7--------5--------7--------5--------7>--
-----7--------7--------7--------7---------
--------0--------0--------0--------0------
------------------------------------------
------------------------------------------
-na


  G        G?             G/Gb  G/D
-----------------------------------------------
--7--------5--------7--------5--------7--------
-----7--------7--------7--------7--------7-----
--------0--------0--------0--------0--------0--
-----------------------------------------------
-----------------------------------------------
                    Y hacia una estupenda ma-


  D        Dsus2    D        Dsus4
---------------------------------------------
--7--------5--------7--------5--------7------
-----7--------7--------7--------7--------7>--
--------0--------0--------0--------0---------
---------------------------------------------
---------------------------------------------
-ñana


--------
CHORUS 1
--------


1)


  A?        G?       D        Dsus4  D
---------------------------------------
---------------------------------------
-----10--------8-----7--7--7--8--7-----
---------9--------7--7--7--7--7-----7--
--0---------0--------------------------
---------------------------------------
He bajado al bar para desayunar, y he le-


  G/A       G        D        Dsus4  D
---------------------------------------
---------------------------------------
-----10--------8-----7--7--7--8--7-----
---------9--------7--7--7--7--7-----7--
--0---------0--------------------------
---------------------------------------
-ído en el Marca que se ha lesionado el ni-


  Asus2
-----------------------------------------------
--0--------7--------5--------0--------5--------
-----7--------7--------7--------7--------7-----
--------0--------0--------0--------0--------0--
-----------------------------------------------
-----------------------------------------------
-ñato

  
  Em       Em/G           Em    Em/Gb
-----------------------------------------------
--0--------7--------5--------0--------5--------
-----7--------7--------7--------7--------7-----
--------0--------0--------0--------0--------0--
-----------------------------------------------
-----------------------------------------------
Y no me he acordado de ti hasta pasado un buen...


  G
-----------------------------------------------
--0--------7--------5--------0--------5--------
-----7--------7--------7--------7--------7-----
--------0--------0--------0--------0--------0--
-----------------------------------------------
-----------------------------------------------
...rato


2)


  D        Dsus2    D        Dsus4
-----------------------------------------------
--7--------5--------7--------5--------7--------
-----7--------7--------7--------7--------7-----
--------0--------0--------0--------0--------0--
-----------------------------------------------
-----------------------------------------------


  D        Dsus2    D        Dsus4
-----------------------------------------------
--7--------5>-------7--------5--------7--------
-----7-----------------7--------7--------7-----
--------0-----------------0--------0--------0--
-----------------------------------------------
-----------------------------------------------


-------
VERSO 3 (Luego han venido estos por aquí...)
-------


Tocar lo mismo que en Verso 1


-------
VERSO 4 (He estado durmiendo hasta la séis...)
-------


Tocar lo mismo que en Verso 2


--------
CHORUS 2
--------


1) (He puesto la tele y había un partido...)


Tocar lo mismo que en la parte 1) del Chorus 1


2)


Guitarra 1 (x4)
----------

D  Dsus2  D  Dsus4


Guitarra 2
----------

--------------------------
--------------------------
--7--7--7--7--7--7--7--7-- (x8)
--0--0--0--0--0--0--0--0--
--------------------------
--------------------------


Guitarra 3
----------

--3--2--0---------3--2--0-----2>--
-----------3---------------3------
--------------2>------------------ (x2)
----------------------------------
----------------------------------
----------------------------------


-------
VERSO 5
-------


  D        Dsus2    D        Dsus4
-----------------------------------------------
--7--------5--------7--------5--------7--------
-----7--------7--------7--------7--------7-----
--------0--------0--------0--------0--------0--
-----------------------------------------------
-----------------------------------------------
Había quedado luego a las diez, he ba-


  D                    Dsus2    Dsus4
-----------------------------------------
--7--------5--------7--------------------
-----7--------7--------7--7--7--7--7--7--
--------0--------0-----0--0--0--0--0--0--
-----------------------------------------
-----------------------------------------
-jado en la moto, hacia los bares de...


  G
-----------------------------------------------
--0--------7--------5--------0--------5--------
-----7--------7--------7--------7--------7-----
--------0--------0--------0--------0--------0--
-----------------------------------------------
-----------------------------------------------
...siempre


  G
-----------------------------
--0--------7--------5--------
-----7--------7--------7-----
--------0--------0--------0--
-----------------------------
-----------------------------
Donde quedaba conti-


  D                          Dsus4
-----------------------------------------------
--0--------7--------7--------5--------7--------
-----7--------7--------7--------7--------7-----
--------0--------0--------0--------0--------0--
-----------------------------------------------
-----------------------------------------------
-go


  G
-----------------------------------------------
--5--------7--------7--------5--------7--------
-----7--------7--------7--------7--------7-----
--------0--------0--------0--------0--------0--
-----------------------------------------------
-----------------------------------------------
                    Y no hacia nada de...


  D                 Dsus4
------------------------------------
--0--------5--------7--------5------
-----7--------7--------7--------7>--
--------0--------0--------0---------
------------------------------------
------------------------------------
...frío


--------
CHORUS 3 (He estado con Erik hasta las séis...)
--------


Tocar lo mismo que en Chorus 2


------------------------------------------------------------
------------------------------------------------------------


-----------
UN BUEN DIA
-----------


--------------------
FORMACION DE ACORDES

A?    (x02255)
Asus2 (002200)
D     (xx0232)
Dsus2 (xx0230)
Dsus4 (xx0233)
Em    (022000)
Em/G  (022003)
Em/Gb (022002)
G     (3x0003)
G?    (3x0033)
G/A   (3x0005)
G/D   (3x0032)
G/Gb  (3x0002)
--------------------


-----
INTRO
-----


D  Dsus2  D  Dsus4


-------
VERSO 1
-------


D        Dsus2  D Dsus4
Me he despertado  casi a las diez 

           D       Dsus2  D
y me he quedado en la cama 

Dsus4                  G   G?  G/Gb  G/D
más de tres cuartos de hora 

G        G?        D  Dsus2  Dsus4
y ha merecido la pena 


D  Dsus2  Dsus4


-------
VERSO 2
-------


D       Dsus2    D Dsus4
Ha entrado el sol  por la ventana 

         D        Dsus2  D
y han brillado en el aire 

Dsus4            G    G?  G/Gb  G/D
algunas motas de polvo 

G      G?           D  Dsus2  Dsus4  G  G?
he salido a la ventana 

    G/Gb      G/D       D   Dsus2  D  Dsus4
y hacía una estupenda mañana


--------
CHORUS 1
--------


   A?        G?       D     Dsus4  D 
He bajado al bar para desayunar 

       G/A       G
y he leído en el Marca 

       D      Dsus4 D    Asus2
que se ha lesionado el niñato

  Em       Em/G        Em
y no me he acordado de ti 

      Em/Gb          G
hasta pasado un buen rato


D Dsus2  D  Dsus4 (x2)


-------
VERSO 3
------- 


D     Dsus2   D    Dsus4
Luego han venido estos por aquí 

      D     Dsus2 D
y nos hemos bajado 

Dsus4           G
a tomarnos unas cañas 

                   D    Dsus2  Dsus4
y me he reído con ellos


D  Dsus2  Dsus4


-------
VERSO 4
------- 


   D      Dsus2  D  Dsus4
He estado durmiendo hasta las séis 

     D       Dsus2 D
y después he leído 

Dsus4           G
unos tebeos de spiderman  

                   D   Dsus4  G
que casi no recordaba

                  D     Dsus4
y he salido de la cama 


--------
CHORUS 2
--------


   A?        G?       D         Dsus4  D
He puesto la tele y había un partido 

       G/A       G       D
y Mendieta ha marcado un gol 

  Dsus4  D       Asus2
realmen- te increíble

  Em           Em/G 
y me he puesto triste 

   Em      Em/Gb          G
el momento justo antes de irme


D  Dsus2  D  Dsus4 (x4)


-------
VERSO 5
------- 


  D   Dsus2  D Dsus4
Había quedado  de nuevo a las diez

       D       
y he bajado en la moto

Dsus2     Dsus4    G 
hacia los bares de siempre 

                   D  Dsus4  G
donde quedaba contigo 

                   D  Dsus4
y no hacía nada de frío 


--------
CHORUS 3
--------


   A?         G?   D         Dsus4  D 
He estado con Erik hasta las séis 

      G/A   G
y nos hemos metido 

D      Dsus4  D      Asus2
cuatro millo- nes de rayas 

  Em           Em/G        Em
y no he vuelto a pensar en ti

      Em/Gb            G
hasta que he llegado a casa 

  Em       Em/G   Em
y ya no he podido dormir

     Em/Gb      G 
como siempre me pasa 


D  Dsus2  D  Dsus4  (x4)


D


------------------------------------------------------------
------------------------------------------------------------

            
            
Suggest correction
Creating personal tab
Creating personal tab
You can edit any tab online and save it as your Personal.

You can edit, replace or remove any tab part or add personal notes – all changes will be seen only by you.

Personal tabs can be accessed anytime from any device, even offline.
Learn more »
Give kudos to tab author, rate the tab!
1 2 3 4 5
comments
print report bad tab
guest
Wanna post a correction for this tab? Suggest correction