Oops, an error
Loading. Please wait.

A Un Tipo Listo bass

155 views 1 this week
no commentswrite comment
1 2 3 4 5
3 more votes to show rating
add to favorites
×
Save as Personal and add changes to this tab that will be seen only by you. Learn more ›
×
You can save this tab as Personal to edit and correct it or add notes. All changes will be seen only by you. Learn more »
launch autoscroll
font size
0
reset
guitar tuner
edit
Autoscroll
slow
fast
+/-
esc
set tempo
stop
aqui les dejo la cancion, esta sacada del album: a pelo.

un saludo para resistencia!!! y pa el viejo verde!!!

la intro es asi:

G |----------------|
D |----------------|
A |-2---2---2---2-0|
E |----------------| (se toca varias veces no se el numero exacto,
ya lo notareis en la canción)


después de la intro toca esto hasta que se llega al estribillo:

G |-------------------------------------------|
D |-------------------------------------------|
A |-202020202-202020202---5-00-5-00-----------|se toca 6 veces
E |-------------------------------------------|

estribillo:

G |------------------------------------------------------------------|
D |------------------------------------------------------------------|
A |-5-------------------------202020202-202020202--------------------|x3
E |---7-5--33333333-55555555-----------------------------------------|

y la ultima se toca esto:

G |------------------------------------------------------------------|
D |------------------------------------------------------------------|
A |-5----------------------------------------------------------------|
E |---7-5--33333333-55555555----202020202-202020202-202020202020202--|


ahora se vuelve a tocar la parte del principio:

G |-------------------------------------------|
D |-------------------------------------------|
A |-202020202-202020202---5-00-5-00-----------|se toca 6 veces
E |-------------------------------------------|

hasta que vuelva a llegar el estribillo.

ahora tocamos el estribillo:

G |------------------------------------------------------------------|
D |------------------------------------------------------------------|
A |-5-------------------------202020202-202020202--------------------|x3
E |---7-5--33333333-55555555-----------------------------------------|

pero la ultima ahora cambia:

G |------------------------------------------------------------------|
D |------------------------------------------------------------------|
A |-5----------------------------------------------------------------|
E |---7-5--33333333-55555555-----------------------------------------|


durante el punteo de guitarra el bajo hace esto:

G |--------------|
D |--------------|
A |-202020202----|
E |--------------|

la parte final del punteo el bajo toca algo que aun no he conseguido
 sacar cuando lo saque ya lo pondre.

ahora volvemos a tocar el estribillo:

G |------------------------------------------------------------------|
D |------------------------------------------------------------------|
A |-5-------------------------202020202-202020202--------------------|x3
E |---7-5--33333333-55555555-----------------------------------------|

y la ultima se toca esto:

G |------------------------------------------------------------------|
D |------------------------------------------------------------------|
A |-5----------------------------------------------------------------|
E |---7-5--33333333-55555555--202020202-202020202-202020202020202----|

y acabamos con esto:

G |-------------------------------------------|
D |-------------------------------------------|
A |-202020202-202020202---5-00-5-00-----------| se toca 2 veces
E |-------------------------------------------|


bueno pos aquí esta, el final no esta acabado,
para dudas, aclaraciones, correciones o demas: hector_lograu@

saludos

            
            
Suggest correction
Creating personal tab
Creating personal tab
You can edit any tab online and save it as your Personal.

You can edit, replace or remove any tab part or add personal notes – all changes will be seen only by you.

Personal tabs can be accessed anytime from any device, even offline.
Learn more »
Give kudos to tab author, rate the tab!
1 2 3 4 5
comments
print report bad tab
guest
Wanna post a correction for this tab? Suggest correction