Oops, an error
Loading. Please wait.

Al Cantar tab

version 2
version 2

Whole song

Interactive

167 views 1 this week
no commentswrite comment
1 2 3 4 5
3 more votes to show rating
add to favorites
×
Save as Personal and add changes to this tab that will be seen only by you. Learn more ›
×
You can save this tab as Personal to edit and correct it or add notes. All changes will be seen only by you. Learn more »
launch autoscroll
font size
0
reset
how to read this tab
guitar tuner
edit
Autoscroll
slow
fast
+/-
esc
set tempo
stop
                                    


                                                                   Guitarra 1


                                                                              
E||--0---------------------|--3------------3--3-----|--0---------------------|
B||--1---------------------|--3------------3-----3--|--1------0h-1-----------|
G||--0------0-----0--------|--4------4-----4--------|--2------2-----2--------|
D||--2------0h-2-----2-----|--5---------5-----------|--2---------------2-----|
A||--3------------------3--|--5---------------------|--0------------------3--|
E||--0---------------------|--3---------------------|--0---------------------|


                                                                             
--1------------1--1-----|--0---------------------|-----3--3--------1--1-----|
--1------------1-----1--|--1---------------------|-----3--3--------1--1-----|
--2------2-----2--------|--0------0-----0--------|-----4-----4-----2-----2--|
--3---------3-----------|--2------0h-2-----2-----|-----5-----5-----3-----3--|
--3---------------------|--3------------------3--|--5--5--------3--3--------|
--1---------------------|--0---------------------|--3--3--------1--1--------|


                                                                             
--0----------------------|-------------------------|--0---------------------|
--1----------------------|-------------------------|--1---------------------|
--0----------------0-----|-----------0-2-0---------|--0------0-----0--------|
--2---------0-2-0-----2--|------------------0-2-0--|--2------0h-2-----2-----|
--3------3---------------|--3----------------------|--3------------------3--|
--0----------------------|-------------------------|--0---------------------|


                                                                           
--3------------3--3-----|--0---------------------|--1------------1--1-----|
--3------------3-----3--|--1------0h-1-----------|--1------------1-----1--|
--4------4-----4--------|--2------2-----2--------|--2------2-----2--------|
--5---------5-----------|--2---------------2-----|--3---------3-----------|
--5---------------------|--0------------------3--|--3---------------------|
--3---------------------|--0---------------------|--1---------------------|


                                                                               
--0---------------------|-----3--3--------1--1-----|--0-----------------------|
--1---------------------|-----3--3--------1--1-----|--1-----------------------|
--0------0-----0--------|-----4-----4-----2-----2--|--0-----------------------|
--2------0h-2-----2-----|-----5-----5-----3-----3--|--2---------0-2-0--0-2-0--|
--3------------------3--|--5--5--------3--3--------|--3------3----------------|
--0---------------------|--3--3--------1--1--------|--0-----------------------|


                                                                           
----------3----3--3-----|--0---------------------|--3------------3--3-----|
----------3----3--3--3--|--1---------------------|--3------------3-----3--|
----------4----4--4--4--|--0------0-----0--------|--4------4-----4--------|
----------5----5--5--5--|--2------0h-2-----2-----|--5---------5-----------|
--3/-5----5----------5--|--3------------------3--|--5---------------------|
----------3-------------|--0---------------------|--3---------------------|


                                                                           
--0---------------------|--1------------1--1-----|--0---------------------|
--1------0h-1-----------|--1------------1-----1--|--1---------------------|
--2------2-----2--------|--2------2-----2--------|--0------0-----0--------|
--2---------------2-----|--3---------3-----------|--2------0h-2-----2-----|
--0------------------3--|--3---------------------|--3------------------3--|
--0---------------------|--1---------------------|--0---------------------|


                                                                               
-----3--3--------1--1-----|--0-----------------------|----------3----3--3-----|
-----3--3--------1--1-----|--1-----------------------|----------3----3--3--3--|
-----4-----4-----2-----2--|--0-----------------------|----------4----4--4--4--|
-----5-----5-----3-----3--|--2---------0-2-0--0-2-0--|----------5----5--5--5--|
--5--5--------3--3--------|--3------3----------------|--3/-5----5----------5--|
--3--3--------1--1--------|--0-----------------------|----------3-------------|


                                                                           
--0---------------------|--3------------3--3-----|--0---------------------|
--1---------------------|--3------------3-----3--|--1------0h-1-----------|
--0------0-----0--------|--4------4-----4--------|--2------2-----2--------|
--2------0h-2-----2-----|--5---------5-----------|--2---------------2-----|
--3------------------3--|--5---------------------|--0------------------3--|
--0---------------------|--3---------------------|--0---------------------|


                                                                             
--1------------1--1-----|--0---------------------|-----3--3--------1--1-----|
--1------------1-----1--|--1---------------------|-----3--3--------1--1-----|
--2------2-----2--------|--0------0-----0--------|-----4-----4-----2-----2--|
--3---------3-----------|--2------0h-2-----2-----|-----5-----5-----3-----3--|
--3---------------------|--3------------------3--|--5--5--------3--3--------|
--1---------------------|--0---------------------|--3--3--------1--1--------|


                                                               
--0----------------|--0----0----0----|--1------------1--1-----|
--1----------------|--1----1----0----|--1------------1-----1--|
--0----------------|--0----2----0----|--2------2-----2--------|
--2----------------|--2----2----2----|--3---------3-----------|
--3----------------|--3----0----2----|--3---------------------|
--0----------------|--0----0----0----|--1---------------------|


                                                                  
--3------------3--3-----|--5--------3--------|--1----------------|
--3------------3-----3--|--5--------3--------|--1----------------|
--4------4-----4--------|--5--------4--------|--2----------------|
--5---------5-----------|--7--------5--------|--3----------------|
--5---------------------|--7--------5--------|--3----------------|
--3---------------------|--5--------3--------|--1----------------|


                                                                               
--0---------------------|-----3--3--------1--1-----|--0-----------------------|
--1---------------------|-----3--3--------1--1-----|--1-----------------------|
--0------0-----0--------|-----4-----4-----2-----2--|--0-----------------------|
--2------0h-2-----2-----|-----5-----5-----3-----3--|--2---------0-2-0--0-2-0--|
--3------------------3--|--5--5--------3--3--------|--3------3----------------|
--0---------------------|--3--3--------1--1--------|--0-----------------------|


                                                                           
----------3----3--3-----|--0---------------------|--3------------3--3-----|
----------3----3--3--3--|--1---------------------|--3------------3-----3--|
----------4----4--4--4--|--0------0-----0--------|--4------4-----4--------|
----------5----5--5--5--|--2------0h-2-----2-----|--5---------5-----------|
--3/-5----5----------5--|--3------------------3--|--5---------------------|
----------3-------------|--0---------------------|--3---------------------|


                                                                           
--0---------------------|--1------------1--1-----|--0---------------------|
--1------0h-1-----------|--1------------1-----1--|--1---------------------|
--2------2-----2--------|--2------2-----2--------|--0------0-----0--------|
--2---------------2-----|--3---------3-----------|--2------0h-2-----2-----|
--0------------------3--|--3---------------------|--3------------------3--|
--0---------------------|--1---------------------|--0---------------------|


                                                                               
-----3--3--------1--1-----|--0-----------------------|----------3----3--3-----|
-----3--3--------1--1-----|--1-----------------------|----------3----3--3--3--|
-----4-----4-----2-----2--|--0-----------------------|----------4----4--4--4--|
-----5-----5-----3-----3--|--2---------0-2-0--0-2-0--|----------5----5--5--5--|
--5--5--------3--3--------|--3------3----------------|--3/-5----5----------5--|
--3--3--------1--1--------|--0-----------------------|----------3-------------|


                                                                           
--0---------------------|--3------------3--3-----|--0---------------------|
--1---------------------|--3------------3-----3--|--1------0h-1-----------|
--0------0-----0--------|--4------4-----4--------|--2------2-----2--------|
--2------0h-2-----2-----|--5---------5-----------|--2---------------2-----|
--3------------------3--|--5---------------------|--0------------------3--|
--0---------------------|--3---------------------|--0---------------------|


                                                                             
--1------------1--1-----|--0---------------------|-----3--3--------1--1-----|
--1------------1-----1--|--1---------------------|-----3--3--------1--1-----|
--2------2-----2--------|--0------0-----0--------|-----4-----4-----2-----2--|
--3---------3-----------|--2------0h-2-----2-----|-----5-----5-----3-----3--|
--3---------------------|--3------------------3--|--5--5--------3--3--------|
--1---------------------|--0---------------------|--3--3--------1--1--------|


                                                                             
--0-----------------------|----------3----3--3-----|--0---------------------|
--1-----------------------|----------3----3--3--3--|--1---------------------|
--0-----------------------|----------4----4--4--4--|--0------0-----0--------|
--2---------0-2-0--0-2-0--|----------5----5--5--5--|--2------0h-2-----2-----|
--3------3----------------|--3/-5----5----------5--|--3------------------3--|
--0-----------------------|----------3-------------|--0---------------------|


                                                                           
--3------------3--3-----|--0---------------------|--1------------1--1-----|
--3------------3-----3--|--1------0h-1-----------|--1------------1-----1--|
--4------4-----4--------|--2------2-----2--------|--2------2-----2--------|
--5---------5-----------|--2---------------2-----|--3---------3-----------|
--5---------------------|--0------------------3--|--3---------------------|
--3---------------------|--0---------------------|--1---------------------|


                                                                        
--0---------------------|-----3--3--------1--1-----|--0----------------|
--1---------------------|-----3--3--------1--1-----|--1----------------|
--0------0-----0--------|-----4-----4-----2-----2--|--0----------------|
--2------0h-2-----2-----|-----5-----5-----3-----3--|--2----------------|
--3------------------3--|--5--5--------3--3--------|--3----------------|
--0---------------------|--3--3--------1--1--------|--0----------------|


                                                                    
--0----0----0----|--1------------1--1-----|--3------------3--3-----|
--1----1----0----|--1------------1-----1--|--3------------3-----3--|
--0----2----0----|--2------2-----2--------|--4------4-----4--------|
--2----2----2----|--3---------3-----------|--5---------5-----------|
--3----0----2----|--3---------------------|--5---------------------|
--0----0----0----|--1---------------------|--3---------------------|


                                                                  
--5--------3--------|--1----------------|--0---------------------|
--5--------3--------|--1----------------|--1---------------------|
--5--------4--------|--2----------------|--0------0-----0--------|
--7--------5--------|--3----------------|--2------0h-2-----2-----|
--7--------5--------|--3----------------|--3------------------3--|
--5--------3--------|--1----------------|--0---------------------|


                                                                 
-----3--3--------1--1-----|--0----------------|--0----0----0----|
-----3--3--------1--1-----|--1----------------|--1----1----0----|
-----4-----4-----2-----2--|--0----------------|--0----2----0----|
-----5-----5-----3-----3--|--2----------------|--2----2----2----|
--5--5--------3--3--------|--3----------------|--3----0----2----|
--3--3--------1--1--------|--0----------------|--0----0----0----|


                                                                       
--1------------1--1-----|--3------------3--3-----|--5--------3--------|
--1------------1-----1--|--3------------3-----3--|--5--------3--------|
--2------2-----2--------|--4------4-----4--------|--5--------4--------|
--3---------3-----------|--5---------5-----------|--7--------5--------|
--3---------------------|--5---------------------|--7--------5--------|
--1---------------------|--3---------------------|--5--------3--------|


                                                                        
--1----------------|--0---------------------|-----3--3--------1--1-----|
--1----------------|--1---------------------|-----3--3--------1--1-----|
--2----------------|--0------0-----0--------|-----4-----4-----2-----2--|
--3----------------|--2------0h-2-----2-----|-----5-----5-----3-----3--|
--3----------------|--3------------------3--|--5--5--------3--3--------|
--1----------------|--0---------------------|--3--3--------1--1--------|


                                                                             
--0-----------------------|----------3----3--3-----|--0---------------------|
--1-----------------------|----------3----3--3--3--|--1---------------------|
--0-----------------------|----------4----4--4--4--|--0------0-----0--------|
--2---------0-2-0--0-2-0--|----------5----5--5--5--|--2------0h-2-----2-----|
--3------3----------------|--3/-5----5----------5--|--3------------------3--|
--0-----------------------|----------3-------------|--0---------------------|


                                                                               
-----3--3--------1--1-----|--0-----------------------|----------3----3--3-----|
-----3--3--------1--1-----|--1-----------------------|----------3----3--3--3--|
-----4-----4-----2-----2--|--0-----------------------|----------4----4--4--4--|
-----5-----5-----3-----3--|--2---------0-2-0--0-2-0--|----------5----5--5--5--|
--5--5--------3--3--------|--3------3----------------|--3/-5----5----------5--|
--3--3--------1--1--------|--0-----------------------|----------3-------------|


                                                                             
--0---------------------|-----3--3--------1--1-----|--0----0----------0-----|
--1---------------------|-----3--3--------1--1-----|--1----1----------1-----|
--0------0-----0--------|-----4-----4-----2-----2--|--0----0--0----0--0--0--|
--2------0h-2-----2-----|-----5-----5-----3-----3--|--2----2--2----2--2--2--|
--3------------------3--|--5--5--------3--3--------|--3----3--3----3--3--3--|
--0---------------------|--3--3--------1--1--------|--0----0--0----0--0--0--|


                                                                           
--0----0-----0----0-----|--5----5----------5-----|--3----3-----1----1-----|
--1----1-----1----1-----|--5----5----------5-----|--3----3-----1----1-----|
--0----0--0--0----0--0--|--5----5--5----5--5--x--|--4----4--4--2----2--2--|
--2----2--2--2----2--2--|--7----7--7----7--7--x--|--5----5--5--3----3--3--|
--3----3--3--3----3--3--|--7----7--7----7--7--x--|--5----5--5--3----3--3--|
--0----0--0--0----0--0--|--5----5--5----5--5--x--|--3----3--3--1----1--1--|


                                                                           
--0----0----------0-----|--0----0-----0----0-----|--5----5----------5-----|
--1----1----------1-----|--1----1-----1----1-----|--5----5----------5-----|
--0----0--0----0--0--0--|--0----0--0--0----0--0--|--5----5--5----5--5--x--|
--2----2--2----2--2--2--|--2----2--2--2----2--2--|--7----7--7----7--7--x--|
--3----3--3----3--3--3--|--3----3--3--3----3--3--|--7----7--7----7--7--x--|
--0----0--0----0--0--0--|--0----0--0--0----0--0--|--5----5--5----5--5--x--|


                                                                           
--3----3-----1----1-----|--0----0----------0-----|--0----0-----0----0-----|
--3----3-----1----1-----|--1----1----------1-----|--1----1-----1----1-----|
--4----4--4--2----2--2--|--0----0--0----0--0--0--|--0----0--0--0----0--0--|
--5----5--5--3----3--3--|--2----2--2----2--2--2--|--2----2--2--2----2--2--|
--5----5--5--3----3--3--|--3----3--3----3--3--3--|--3----3--3--3----3--3--|
--3----3--3--1----1--1--|--0----0--0----0--0--0--|--0----0--0--0----0--0--|


                                                                           
--5----5----------5-----|--3----3-----1----1-----|--0----0----------0-----|
--5----5----------5-----|--3----3-----1----1-----|--1----1----------1-----|
--5----5--5----5--5--x--|--4----4--4--2----2--2--|--0----0--0----0--0--0--|
--7----7--7----7--7--x--|--5----5--5--3----3--3--|--2----2--2----2--2--2--|
--7----7--7----7--7--x--|--5----5--5--3----3--3--|--3----3--3----3--3--3--|
--5----5--5----5--5--x--|--3----3--3--1----1--1--|--0----0--0----0--0--0--|


                                                                           
--0----0-----0----0-----|--5----5----------5-----|--3----3-----1----1-----|
--1----1-----1----1-----|--5----5----------5-----|--3----3-----1----1-----|
--0----0--0--0----0--0--|--5----5--5----5--5--x--|--4----4--4--2----2--2--|
--2----2--2--2----2--2--|--7----7--7----7--7--x--|--5----5--5--3----3--3--|
--3----3--3--3----3--3--|--7----7--7----7--7--x--|--5----5--5--3----3--3--|
--0----0--0--0----0--0--|--5----5--5----5--5--x--|--3----3--3--1----1--1--|


                                                                           
--0----0----------0-----|--0----0-----0----0-----|--5----5----------5-----|
--1----1----------1-----|--1----1-----1----1-----|--5----5----------5-----|
--0----0--0----0--0--0--|--0----0--0--0----0--0--|--5----5--5----5--5--x--|
--2----2--2----2--2--2--|--2----2--2--2----2--2--|--7----7--7----7--7--x--|
--3----3--3----3--3--3--|--3----3--3--3----3--3--|--7----7--7----7--7--x--|
--0----0--0----0--0--0--|--0----0--0--0----0--0--|--5----5--5----5--5--x--|


                                                                           
--3----3-----1----1-----|--0----0----------0-----|--0----0-----0----0-----|
--3----3-----1----1-----|--1----1----------1-----|--1----1-----1----1-----|
--4----4--4--2----2--2--|--0----0--0----0--0--0--|--0----0--0--0----0--0--|
--5----5--5--3----3--3--|--2----2--2----2--2--2--|--2----2--2--2----2--2--|
--5----5--5--3----3--3--|--3----3--3----3--3--3--|--3----3--3--3----3--3--|
--3----3--3--1----1--1--|--0----0--0----0--0--0--|--0----0--0--0----0--0--|


                                                                           
--5----5----------5-----|--3----3-----1----1-----|--0----0----------0-----|
--5----5----------5-----|--3----3-----1----1-----|--1----1----------1-----|
--5----5--5----5--5--x--|--4----4--4--2----2--2--|--0----0--0----0--0--0--|
--7----7--7----7--7--x--|--5----5--5--3----3--3--|--2----2--2----2--2--2--|
--7----7--7----7--7--x--|--5----5--5--3----3--3--|--3----3--3----3--3--3--|
--5----5--5----5--5--x--|--3----3--3--1----1--1--|--0----0--0----0--0--0--|


                                                                           
--0----0-----0----0-----|--5----5----------5-----|--3----3-----1----1-----|
--1----1-----1----1-----|--5----5----------5-----|--3----3-----1----1-----|
--0----0--0--0----0--0--|--5----5--5----5--5--x--|--4----4--4--2----2--2--|
--2----2--2--2----2--2--|--7----7--7----7--7--x--|--5----5--5--3----3--3--|
--3----3--3--3----3--3--|--7----7--7----7--7--x--|--5----5--5--3----3--3--|
--0----0--0--0----0--0--|--5----5--5----5--5--x--|--3----3--3--1----1--1--|


                                                                           
--0----0----------0-----|--0----0-----0----0-----|--5----5----------5-----|
--1----1----------1-----|--1----1-----1----1-----|--5----5----------5-----|
--0----0--0----0--0--0--|--0----0--0--0----0--0--|--5----5--5----5--5--x--|
--2----2--2----2--2--2--|--2----2--2--2----2--2--|--7----7--7----7--7--x--|
--3----3--3----3--3--3--|--3----3--3--3----3--3--|--7----7--7----7--7--x--|
--0----0--0----0--0--0--|--0----0--0--0----0--0--|--5----5--5----5--5--x--|


                                                                           
--3----3-----1----1-----|--0----0----------0-----|--0----0-----0----0-----|
--3----3-----1----1-----|--1----1----------1-----|--1----1-----1----1-----|
--4----4--4--2----2--2--|--0----0--0----0--0--0--|--0----0--0--0----0--0--|
--5----5--5--3----3--3--|--2----2--2----2--2--2--|--2----2--2--2----2--2--|
--5----5--5--3----3--3--|--3----3--3----3--3--3--|--3----3--3--3----3--3--|
--3----3--3--1----1--1--|--0----0--0----0--0--0--|--0----0--0--0----0--0--|


                                                                           
--5----5----------5-----|--3----3-----1----1-----|--0----0----------0-----|
--5----5----------5-----|--3----3-----1----1-----|--1----1----------1-----|
--5----5--5----5--5--x--|--4----4--4--2----2--2--|--0----0--0----0--0--0--|
--7----7--7----7--7--x--|--5----5--5--3----3--3--|--2----2--2----2--2--2--|
--7----7--7----7--7--x--|--5----5--5--3----3--3--|--3----3--3----3--3--3--|
--5----5--5----5--5--x--|--3----3--3--1----1--1--|--0----0--0----0--0--0--|


                                                                           
--0----0-----0----0-----|--5----5----------5-----|--3----3-----1----1-----|
--1----1-----1----1-----|--5----5----------5-----|--3----3-----1----1-----|
--0----0--0--0----0--0--|--5----5--5----5--5--x--|--4----4--4--2----2--2--|
--2----2--2--2----2--2--|--7----7--7----7--7--x--|--5----5--5--3----3--3--|
--3----3--3--3----3--3--|--7----7--7----7--7--x--|--5----5--5--3----3--3--|
--0----0--0--0----0--0--|--5----5--5----5--5--x--|--3----3--3--1----1--1--|


                                                                      
--0----0----------0-----|--0----0-----0----0-----|--0----------------|
--1----1----------1-----|--1----1-----1----1-----|--1----------------|
--0----0--0----0--0--0--|--0----0--0--0----0--0--|--0----------------|
--2----2--2----2--2--2--|--2----2--2--2----2--2--|--2----------------|
--3----3--3----3--3--3--|--3----3--3--3----3--3--|--3----------------|
--0----0--0----0--0--0--|--0----0--0--0----0--0--|--0----------------|


                                                                     
--3--------1--------|------------------|------|------|------|------||
--3--------1--------|------------------|------|------|------|------||
--4--------2--------|------------------|------|------|------|------||
--5--------3--------|------------------|------|------|------|------||
--5--------3--------|------------------|------|------|------|------||
--3--------1--------|------------------|------|------|------|------||

            
            
Suggest correction
Creating personal tab
Creating personal tab
You can edit any tab online and save it as your Personal.

You can edit, replace or remove any tab part or add personal notes – all changes will be seen only by you.

Personal tabs can be accessed anytime from any device, even offline.
Learn more »
Give kudos to tab author, rate the tab!
1 2 3 4 5
comments
print report bad tab
guest
Wanna post a correction for this tab? Suggest correction