Oops, an error
Loading. Please wait.

Bebiendo Del Mismo Vaso bass

50 views 1 this week
no commentswrite comment
1 2 3 4 5
3 more votes to show rating
add to favorites
×
Save as Personal and add changes to this tab that will be seen only by you. Learn more ›
×
You can save this tab as Personal to edit and correct it or add notes. All changes will be seen only by you. Learn more »
launch autoscroll
font size
0
reset
guitar tuner
edit
Autoscroll
slow
fast
+/-
esc
set tempo
stop
PLATERO Y TU - BEBIENDO DEL MISMO VASO

    C    G    C    G
G|----|----|----|----|
D|----|----|----|----|
A|----|----|----|----|
E|----|----|----|----|
Esto se "toca" 3 veces pero solo guitarra.

PUENTE

  G G F C
G|--------|----|--------|----|--------|----|--------|----|
D|--------|----|--------|----|--------|----|--------|----|
A|------3......|------3......|------3......|------3......|
E|3-3-1---|----|3-3-1---|----|3-3-1---|----|3-3-1---|----|

ESTROFA 2

     C        G        C        G         C        G        C        G
G|-----2--|--------|-----2--|--------|-----2--|--------|-----2--|--------|
D|----5-3-|-----2--|----5-3-|-----2--|----5-3-|-----2--|----5-3-|-----2--|
A|3.------|5.--5-5-|3.------|5.--5-5-|3.------|5.--5-5-|3.------|5.--5-5-|
E|--------|--------|--------|--------|--------|--------|--------|--------|

ENGANCHE

G|--------|--------|
D|--------|--------|
A|33333333|33333333|
E|--------|--------|

ESTRIBILLO

   F  C     G  Am    F  C     G
G|--------|--------|--------|--------|
D|--------|--------|--------|--------|
A|----3-3-|--------|----3-3-|--------|
E|1--1----|3--35-5-|1--1----|3-3-3-3-|

   F  C     G  Am    F  C     G
G|--------|--------|--------|--------|--------|--------|----|
D|--------|--------|--------|--------|--------|--------|----|
A|----3-3-|--------|----3-3-|--------|--------|--------|----|
E|1--1----|3--35-5-|1--1----|3-3-3-3-|3-3-3-3-|3-3-3-3-|3...|

PUENTE

  G G F C     C       G        C         G
G|--------|-----2--|--------|-----2--|5555----|
D|--------|----5-3-|-----2--|----5-3-|----7775|
A|------3-|3.------|5.--5-5-|3.------|--------|
E|3-3-1---|--------|--------|--------|--------|

ESTROFA 3

     C        G        C        G         C        G        C        G
G|-----2--|--------|-----2--|--------|-----2--|--------|-----2--|--------|
D|----5-3-|-----2--|----5-3-|-----2--|----5-3-|-----2--|----5-3-|-----2--|
A|3.------|5.--5-5-|3.------|5.--5-5-|3.------|5.--5-5-|3.------|5.--5-5-|
E|--------|--------|--------|--------|--------|--------|--------|--------|

ESTROFA "4"

   C        G    C        G    C        G    C        G
G|--------|----|--------|----|--------|----|--------|----|
D|--------|----|--------|----|--------|----|--------|----|
A|3-3-----|----|3-3-----|----|3-3-----|----|3-3-----|----|
E|--------|----|--------|----|--------|----|--------|----|

ENGANCHE DE LOS SILBATOS

G|--------|--------|
D|--------|--------|
A|--------|----0345|
E|--------|--------|

ESTRIBILLO

   F  C     G  Am    F  C     G
G|--------|--------|--------|--------|
D|--------|--------|--------|--------|
A|----3-3-|--------|----3-3-|--------|
E|1--1----|3--35-5-|1--1----|3-3-3-3-|

   F  C     G  Am    F  C     G
G|--------|--------|--------|--------|----|
D|--------|--------|--------|--------|----|
A|----3-3-|--------|----3-3-|--------|----|
E|1--1----|3--35-5-|1--1----|3-3-3-3-|3...|

PUENTE

  G G F C
G|--------|----|----|----|----|----|----|----|
D|--------|----|----|----|----|----|----|----|
A|------3......|----|----|----|----|----|----|
E|3-3-1---|----|----|----|----|----|----|----|

PUNTEO

   F  C     G  Am    F  C     G
G|--------|--------|--------|--------|
D|--------|--------|--------|--------|
A|----3-3-|--------|----3-3-|--------|
E|1--1----|3--35-5-|1--1----|3-3-3-3-|

   F  C     G  Am    F  C     G
G|--------|--------|--------|--------|
D|--------|--------|--------|--------|
A|----3-3-|--------|----3-3-|--------|
E|1--1----|3--35-5-|1--1----|3-3-3-3-|

ESTRIBILLO

   F  C     G  Am    F  C     G
G|--------|--------|--------|--------|
D|--------|--------|--------|--------|
A|----3-3-|--------|----3-3-|--------|
E|1--1----|3--35-5-|1--1----|3-3-3-3-|

   F  C     G  Am    F  C     G
G|--------|--------|--------|--------|
D|--------|--------|--------|--------|
A|----3-3-|--------|----3-3-|--------|
E|1--1----|3--35-5-|1--1----|3-3-3-3-|

G|--------|--------|--------|----|
D|--------|--------|--------|----|
A|--------|--------|--------|----|
E|3-3-3-3-|3-3-3-3-|3-3-3-3-|3...|

FINAL

  G G F C
G|--------|----|--------|----|--------|----|--------|----|
D|--------|----|--------|----|--------|----|--------|----|
A|------3......|------3......|------3......|------3......|
E|3-3-1---|----|3-3-1---|----|3-3-1---|----|3-3-1---|----|

Esto es una aproximacion lo mas fiel posible, probablemente
se me haya escapado alguna nota, de todas formas lo que digo
siempre, escucharlo un par de veces y sale solo.

Saludos.

            
            
Suggest correction
Creating personal tab
Creating personal tab
You can edit any tab online and save it as your Personal.

You can edit, replace or remove any tab part or add personal notes – all changes will be seen only by you.

Personal tabs can be accessed anytime from any device, even offline.
Learn more »
Give kudos to tab author, rate the tab!
1 2 3 4 5
comments
print report bad tab
guest
Wanna post a correction for this tab? Suggest correction