Oops, an error
Loading. Please wait.

El Roce De Tu Cuerpo tab

version 3
version 3

Whole song

Interactive

179 views 1 this week
no commentswrite comment
1 2 3 4 5
3 more votes to show rating
add to favorites
×
Save as Personal and add changes to this tab that will be seen only by you. Learn more ›
×
You can save this tab as Personal to edit and correct it or add notes. All changes will be seen only by you. Learn more »
launch autoscroll
font size
0
reset
how to read this tab
guitar tuner
backing track
0:00
0:00
edit
Autoscroll
slow
fast
+/-
esc
set tempo
stop
E||-------------------|-------------------|-------------------|
B||-------------------|-------------------|-------------------|
G||-------------------|--5----------------|-------------------|
D||-------------------|--5----------------|-------------------|
A||-------------------|--3----------------|-------------------|
E||-------------------|-------------------|-------------------|

-----------------------|-------------------|-------------------|
-----------------------|-------------------|-------------------|
-------7---------------|-------------------|-------------------|
-----------------------|-------------------|-------------------|
--/5-------------------|-------------------|-------------------|
-----------------------|-------------------|-------------------|

------------------------|------------------------------|
------------------------|------------------------------|
------------------------|--12------12----12--14br--12--|
------------------12-14-|------------------------------|
------------------------|------------------------------|
------------------------|------------------------------|

---------------------------------|-------------------------|
---------------------------------|-------------------------|
--14------14-----12---14br----12-|-------------------------|
---------------------------------|-----14------14----------|
---------------------------------|-------------------------|
---------------------------------|-------------------------|

--15-14-12----------------------------------|
-----------15-13-12-15-13-12----------------|
-----------------------------14-12----------|
--------------------------------------12-14-|
--------------------------------------------|
--------------------------------------------|

---------------------------------|-----------------------------------|
---------------------------------|-----------------------------------|
--12-------12---12---14br----12--|--14-------14-----12---14br----12--|
---------------------------------|-----------------------------------|
---------------------------------|-----------------------------------|
---------------------------------|-----------------------------------|

-----------------------|--17b--17b--17b--17b--17b--15--17--15--|
-----------------------|---------------------------------------|
-----------------------|---------------------------------------|
--14------14-----------|---------------------------------------|
-----------------------|---------------------------------------|
-----------------------|---------------------------------------|

--------------------|-------------------|-------------------|
--15----------------|-------------------|-------------------|
--------------------|-------------------|-------------------|
--------------------|-------------------|-------------------|
--------------------|-------------------|-------------------|
--------------------|-------------------|-------------------|
                      PM PM PM PM PM PM PM PM
-------------------|--------------------------|
-------------------|--------------------------|
-------------------|--------------------------|
-------------------|--5--------5--5--------5--|
-------------------|-----5-----------5--------|
-------------------|--------3-----------3-----|
  PM PM PM PM PM PM PM PM    PM PM PM PM PM PM PM PM
--------------------------|--------------------------|
--------------------------|--------------------------|
--7--------7--7--------7--|--0--------0--0--------0--|
-----7-----------7--------|-----2-----------2--------|
--------5-----------5-----|--------2-----------2-----|
--------------------------|--------------------------|
                       PM PM PM PM PM PM PM PM
--------------------|--------------------------|
--------------------|--------------------------|
--5--------7--------|--------------------------|
--5--------7--------|--5--------5--4--------5--|
--3--------5--------|-----5-----------5--------|
--------------------|--------3-----------3-----|
  PM PM PM PM PM PM PM PM    PM PM PM PM PM PM PM PM
--------------------------|--------------------------|
--------------------------|--------------------------|
--7--------7--7--------7--|--0--------0--0--------0--|
-----7-----------7--------|-----2-----------2--------|
--------5-----------5-----|--------2-----------2-----|
--------------------------|--------------------------|
  PM PM PM PM PM PM PM PM    PM PM PM PM PM PM PM PM
--------------------------|--------------------------|
--------------------------|--------------------------|
--0--------0--0--------0--|--------------------------|
-----2-----------2--------|--5--------5--4--------5--|
--------2-----------2-----|-----5-----------5--------|
--------------------------|--------3-----------3-----|
  PM PM PM PM PM PM PM PM    PM PM PM PM PM PM PM PM
--------------------------|--------------------------|
--------------------------|--------------------------|
--7--------7--7--------7--|--0--------0--0--------0--|
-----7-----------7--------|-----2-----------2--------|
--------5-----------5-----|--------2-----------2-----|
--------------------------|--------------------------|
  PM PM PM PM
--------------------------||--------------------|-------------------|
--------------------------||--------------------|-------------------|
--------------------------||*--5----------------|--7----------------|
-----2--2-----------------||*--5----------------|--7----------------|
-----------2-----0--2-----||---3----------------|--5----------------|
--0-----------3--------3--||--------------------|-------------------|
  PM PM      PM PM         PM PM
--------3----------3----|--------3-----------------||
--------3----------3----|--------3-----------------||
--------4----------4----|--------4----------------*||
--x--x-------x--x-------|--x--x-------------------*||
--x--x-------x--x-------|--x--x----------0--2------||
--3--3-------3--3-------|--3--3-------3--------3---||
                                          PM PM      PM PM
-------------------|-------------------|------------------------|
-------------------|-------------------|------------------------|
--5----------------|--7----------------|------------------------|
--5----------------|--7----------------|--x--x--5----x--x--5----|
--3----------------|--5----------------|--x--x--5----x--x--5----|
-------------------|-------------------|--3--3--3----3--3--3----|
  PM PM
-------------------------|-------------------|-------------------|
-------------------------|-------------------|-------------------|
-------------------------|--4----------------|--5----------------|
--x--x--5----------------|--4----------------|--5----------------|
--x--x--5-------------0--|--2----------------|--3----------------|
--3--3--3----0--2--3-----|-------------------|-------------------|
  PM PM PM PM PM PM PM PM    PM PM PM PM
--------------------------|--------------------------|
--------------------------|--------------------------|
--------------------------|--------------------------|
-----------7--7--7--7--7--|--7--7--7--7--7--7--7--7--|
--5--5--5--5--5--5--5--5--|--5--5--5--5--5--5--5--5--|
--------------------------|--------------------------|

|---------------------------|--------------------------|
|---8--------8--------8-----|--7--------7--------7-----|
|*-----7--------7--------7--|-----7--------7--------7--|
|*--------9--------9--------|--------9--------9--------|
|---------------------------|--------------------------|
|---------------------------|--------------------------|

----------------------------|----------------------------------||
----------------------------|----------------------------------||
--9---------9---------9-----|---------------------------------*||
-----9---------9---------9--|--10---------10--12----------12--*||
--------10--------10--------|------10-------------12-----------||
----------------------------|----------8--------------10-------||

------------------------|------------------------------|
------------------------|------------------------------|
------------------------|--12------12----12--14br--12--|
------------------12-14-|------------------------------|
------------------------|------------------------------|
------------------------|------------------------------|

---------------------------------|-------------------------|
---------------------------------|-------------------------|
--14------14-----12---14br----12-|-------------------------|
---------------------------------|-----14------14----------|
---------------------------------|-------------------------|
---------------------------------|-------------------------|

--15-14-12----------------------------------|
-----------15-13-12-15-13-12----------------|
-----------------------------14-12----------|
--------------------------------------12-14-|
--------------------------------------------|
--------------------------------------------|

---------------------------------|-----------------------------------|
---------------------------------|-----------------------------------|
--12-------12---12---14br----12--|--14-------14-----12---14br----12--|
---------------------------------|-----------------------------------|
---------------------------------|-----------------------------------|
---------------------------------|-----------------------------------|

-----------------------|--17b--17b--17b--17b--17b--15--17--15--|
-----------------------|---------------------------------------|
-----------------------|---------------------------------------|
--14------14-----------|---------------------------------------|
-----------------------|---------------------------------------|
-----------------------|---------------------------------------|

--------------------|-------------------|-------------------|
--15----------------|-------------------|-------------------|
--------------------|-------------------|-------------------|
--------------------|-------------------|-------------------|
--------------------|-------------------|-------------------|
--------------------|-------------------|-------------------|
                      PM PM PM PM PM PM PM PM
-------------------|--------------------------|
-------------------|--------------------------|
-------------------|--------------------------|
-------------------|--5--------5--5--------5--|
-------------------|-----5-----------5--------|
-------------------|--------3-----------3-----|
  PM PM PM PM PM PM PM PM    PM PM PM PM PM PM PM PM
--------------------------|--------------------------|
--------------------------|--------------------------|
--7--------7--7--------7--|--0--------0--0--------0--|
-----7-----------7--------|-----2-----------2--------|
--------5-----------5-----|--------2-----------2-----|
--------------------------|--------------------------|
                       PM PM PM PM PM PM PM PM
--------------------|--------------------------|
--------------------|--------------------------|
--5--------7--------|--------------------------|
--5--------7--------|--5--------5--4--------5--|
--3--------5--------|-----5-----------5--------|
--------------------|--------3-----------3-----|
  PM PM PM PM PM PM PM PM    PM PM PM PM PM PM PM PM
--------------------------|--------------------------|
--------------------------|--------------------------|
--7--------7--7--------7--|--0--------0--0--------0--|
-----7-----------7--------|-----2-----------2--------|
--------5-----------5-----|--------2-----------2-----|
--------------------------|--------------------------|
  PM PM PM PM PM PM PM PM    PM PM PM PM PM PM PM PM
--------------------------|--------------------------|
--------------------------|--------------------------|
--0--------0--0--------0--|--------------------------|
-----2-----------2--------|--5--------5--4--------5--|
--------2-----------2-----|-----5-----------5--------|
--------------------------|--------3-----------3-----|
  PM PM PM PM PM PM PM PM    PM PM PM PM PM PM PM PM
--------------------------|--------------------------|
--------------------------|--------------------------|
--7--------7--7--------7--|--0--------0--0--------0--|
-----7-----------7--------|-----2-----------2--------|
--------5-----------5-----|--------2-----------2-----|
--------------------------|--------------------------|
  PM PM PM PM
--------------------------||--------------------|-------------------|
--------------------------||--------------------|-------------------|
--------------------------||*--5----------------|--7----------------|
-----2--2-----------------||*--5----------------|--7----------------|
-----------2-----0--2-----||---3----------------|--5----------------|
--0-----------3--------3--||--------------------|-------------------|
  PM PM      PM PM         PM PM
--------3----------3----|--------3-----------------||
--------3----------3----|--------3-----------------||
--------4----------4----|--------4----------------*||
--x--x-------x--x-------|--x--x-------------------*||
--x--x-------x--x-------|--x--x----------0--2------||
--3--3-------3--3-------|--3--3-------3--------3---||
                                          PM PM      PM PM
-------------------|-------------------|------------------------|
-------------------|-------------------|------------------------|
--5----------------|--7----------------|------------------------|
--5----------------|--7----------------|--x--x--5----x--x--5----|
--3----------------|--5----------------|--x--x--5----x--x--5----|
-------------------|-------------------|--3--3--3----3--3--3----|
  PM PM
-------------------------|-------------------|-------------------|
-------------------------|-------------------|-------------------|
-------------------------|--4----------------|--5----------------|
--x--x--5----------------|--4----------------|--5----------------|
--x--x--5-------------0--|--2----------------|--3----------------|
--3--3--3----0--2--3-----|-------------------|-------------------|
  PM PM    PM PM    PM PM       PM PM    PM
--------------------------|--------------------------|
--------8--------7--------|--5--------7--------------|
--------7--------7--------|--7--------7-----7--7--7--|
--0--0-----0--0-----0--0--|-----0--0-----0--0--0--0--|
--------------------------|--------------------------|
--------------------------|--------------------------|

|---------------------------|--------------------------|
|---8--------8--------8-----|--7--------7--------7-----|
|*-----7--------7--------7--|-----7--------7--------7--|
|*--------9--------9--------|--------9--------9--------|
|---------------------------|--------------------------|
|---------------------------|--------------------------|
                                                      4x
--------------------------|---------------------------||
--5--------5--------5-----|---------------------------||
-----4--------4--------4--|-----------5-----------7--*||
--------5--------5--------|--5--5--5--5--7--7--7--7--*||
--------------------------|--3--3--3--3--5--5--5--5---||
--------------------------|---------------------------||

-----------------------------|-------------------------------|------|
-----------------------------|-------------------------------|------|
--12--11--12--14--14b--------|-----14--12--11--12----12--11--|--12--|
-----------------------------|-------------------------------|------|
-----------------------------|-------------------------------|------|
-----------------------------|-------------------------------|------|


-----|-----|-----|-----|-----|-----|-----|-----|-----|-----|-----|
-----|-----|-----|-----|-----|-----|-----|-----|-----|-----|-----|
-----|-----|-----|-----|-----|-----|-----|-----|-----|-----|-----|
-----|-----|-----|-----|-----|-----|-----|-----|-----|-----|-----|
-----|-----|-----|-----|-----|-----|-----|-----|-----|-----|-----|
-----|-----|-----|-----|-----|-----|-----|-----|-----|-----|-----|

-----|-----||--------------------|-------------------|
-----|-----||--------------------|-------------------|
-----|-----||*--5----------------|--7----------------|
-----|-----||*--5----------------|--7----------------|
-----|-----||---3----------------|--5----------------|
-----|-----||--------------------|-------------------|
  PM PM      PM PM         PM PM
--------3----------3----|--------3-----------------||
--------3----------3----|--------3-----------------||
--------4----------4----|--------4----------------*||
--x--x-------x--x-------|--x--x-------------------*||
--x--x-------x--x-------|--x--x----------0--2------||
--3--3-------3--3-------|--3--3-------3--------3---||
                                          PM PM      PM PM
-------------------|-------------------|------------------------|
-------------------|-------------------|------------------------|
--5----------------|--7----------------|------------------------|
--5----------------|--7----------------|--x--x--5----x--x--5----|
--3----------------|--5----------------|--x--x--5----x--x--5----|
-------------------|-------------------|--3--3--3----3--3--3----|
  PM PM
-------------------------|-------------------|-------------------|
-------------------------|-------------------|-------------------|
-------------------------|--4----------------|--5----------------|
--x--x--5----------------|--4----------------|--5----------------|
--x--x--5-------------0--|--2----------------|--3----------------|
--3--3--3----0--2--3-----|-------------------|-------------------|
  PM PM    PM PM    PM PM       PM PM    PM
--------------------------|--------------------------|
--------8--------7--------|--5--------7--------------|
--------7--------7--------|--7--------7-----7--7--7--|
--0--0-----0--0-----0--0--|-----0--0-----0--0--0--0--|
--------------------------|--------------------------|
--------------------------|--------------------------|

|---------------------------|--------------------------|
|---8--------8--------8-----|--7--------7--------7-----|
|*-----7--------7--------7--|-----7--------7--------7--|
|*--------9--------9--------|--------9--------9--------|
|---------------------------|--------------------------|
|---------------------------|--------------------------|
                                                      3x
--------------------------|---------------------------||
--5--------5--------5-----|---------------------------||
-----4--------4--------4--|-----------5-----------7--*||
--------5--------5--------|--5--5--5--5--7--7--7--7--*||
--------------------------|--3--3--3--3--5--5--5--5---||
--------------------------|---------------------------||

--------------------------|--------------------------|
--8--------8--------8-----|--7--------7--------7-----|
-----7--------7--------7--|-----7--------7--------7--|
--------9--------9--------|--------9--------9--------|
--------------------------|--------------------------|
--------------------------|--------------------------|

--------------------------|---------------------|
--5--------5--------5-----|---------------------|
-----4--------4--------4--|--5------------------|
--------5--------5--------|--5------------------|
--------------------------|--3------------------|
--------------------------|---------------------|

|---------------------------|--------------------------|
|---8--------8--------8-----|--7--------7--------7-----|
|*-----7--------7--------7--|-----7--------7--------7--|
|*--------9--------9--------|--------9--------9--------|
|---------------------------|--------------------------|
|---------------------------|--------------------------|

--------------------------|----------------------------------||
--5--------5--------5-----|----------------------------------||
-----4--------4--------4--|---------------------------------*||
--------5--------5--------|--10---------10--12----------12--*||
--------------------------|------10-------------12-----------||
--------------------------|----------8--------------10-------||

-------------------|-------------------|-----------------------|
-------------------|-------------------|-----------------------|
--5----------------|-------------------|-------7---------------|
--5----------------|-------------------|-----------------------|
--3----------------|-------------------|--/5-------------------|
-------------------|-------------------|-----------------------|

-------------------|--------------------|-------------------||
-------------------|--------------------|-------------------||
-------------------|--12----------------|-------------------||
-------------------|--12----------------|-------------------||
-------------------|--10----------------|-------------------||
-------------------|--------------------|-------------------||

            
            
Suggest correction
Creating personal tab
Creating personal tab
You can edit any tab online and save it as your Personal.

You can edit, replace or remove any tab part or add personal notes – all changes will be seen only by you.

Personal tabs can be accessed anytime from any device, even offline.
Learn more »
Give kudos to tab author, rate the tab!
1 2 3 4 5
comments
print report bad tab
guest
Wanna post a correction for this tab? Suggest correction