Oops, an error
Loading. Please wait.

Entre Dos Mares bass

101 views 3 this week
no commentswrite comment
1 2 3 4 5
3 more votes to show rating
add to favorites
×
Save as Personal and add changes to this tab that will be seen only by you. Learn more ›
×
You can save this tab as Personal to edit and correct it or add notes. All changes will be seen only by you. Learn more »
launch autoscroll
font size
0
reset
guitar tuner
edit
Autoscroll
slow
fast
+/-
esc
set tempo
stop
Bueno esta es mi primera tablatura y creo que se oye bien
Esta en D ojala y les sirva de parte de su amigo
yeyo de escuinapa Sinaloa les doy mis mejores deseos
y como dije ojala y les sirva de algo
Y les mando un saludo para todos los carnales
que les gusta el rock, punk, reggae, ska, heavy metal y demas
así es que a darle lokos , hay nos wachamos al rato
 y un saludo pa Escuinapa Sinaloa MEXICO apa


Bueno esta rola empieza mas o menos así

G|---------------------------------------------------|
D|----------------------------44-55--6---5/7-5-4-----|
A|55-5555555----------55-55555-------------------7-5-|
E|----------55-555555-----------------55-------------|


G|------------------------------------------| X 2 |
D|------------------------------------------------|
A|5555555555555-------------5555555555------------|
E|-------------555555555555-----------5555555555--|

 ?No puedo concebir que tu seas tan idiota?

G|--------------------------------------------------------------|
D|--------------------------------------------------------------|
A|5555555555555555----------------55555555555555----------------|
E|----------------5555555555555555--------------555555555555555-|

G|--------------------------------------------------------------|
D|--------------------------------------------------------------|
A|5555555555555555----------------55555555555555----------------|
E|----------------5555555555555555--------------5555555555--567-|

Dura un tiempo mas en LA y cae a ( B ) SI

CORO    ? Perdido entre dos mares ?
G|------------------------------------------------------------|
D|--------------------------------------------45--77777777777-|
A|---------------------------34--5555555555555----------------|
E|-7777777777---3333333333333---------------------------------|


G|------------------------------------------------------------|
D|7777--8-9---------------------------------------------------|
A|----------------------------------------5-4-5-4-55----------|
E|----------7777777777777---333333333333-------------55555555-|

interlud

G|------------------------------------------------------------|
D|------------------------------------------------------------|
A|5555555555555555----------------55555555555555--------------|
E|----------------5555555555555555---------------5-5-5--------|

Intro

G|------------------------------------------------------------|
D|------------------------------------------------------------|
A|5555555555555555----------------55555555555555--------------|
E|----------------5555555555555555--------------5555555555555-|

Versos
G|------------------------------------------------------------|
D|------------------------------------------------------------|
A|5555555555555555----------------55555555555-----------------|
E|----------------5555555555555555--------------5555555---567-|

CORO  ? perdido entre dos mares ?
G|----------------------------------------------------------|
D|------------------------------------------45--77777777777-|
A|-------------------------34--5555555555555----------------|
E|-77777777777---333333333----------------------------------|

G|-------------------------------------------------------------|
D|7777--8-9----------------------------------------------------|
A|----------------------------------------5-4-5-4-55-----------|
E|----------7777777777777---333333333333------------5555--567--|

G|----------------------------------------------------------|
D|------------------------------------------45--77777777777-|
A|-------------------------34--5555555555555----------------|
E|-777777777777---33333333----------------------------------|

                                                       *  pausa *
G|--------------------------------------------------------------|
D|7777--8-9-------------------------------------------45--7-----|
A|-----------------------------------------5555555555-----------|
E|----------7777777777777---333333333333------------------------|

interlud

G|--------------------------------------------------------------|
D|--------------------------------------------------------------|
A|5555555555555555----------------55555555555555----------------|
E|----------------5555555555555555---------------5-5-5----------|

G|--------------------------------------------------------------|
D|--------------------------------------------------------------|
A|5555555555555555----------------55555555555555----------------|
E|----------------5555555555555555--------------555555555555555-|

G|--------------------------------------------------------------|
D|--------------------------------------------------------------|
A|5555555555555555----------------55555555555555----------------|
E|----------------5555555555555555--------------55555555555555--|


G|--------------------------------------------------------------|
D|--------------------------------------------------------------|
A|5555555555555555----------------55555555555555----------------|
E|----------------5555555555555555--------------55555555555555--|

G|--------------------------------------------------------------|
D|--------------------------------------------------------------|
A|5555555555555555----------------55555555555555----------------|
E|----------------5555555555555555--------------55555555555555--|

Y sigue bajando el volumen hasta que se acaba la rola

Bueno como ya dije esta es mi primera tablatura espero y les sirva
si quieren contactarme para lo que sea me encuentran en
reggaebob182@ estoy a sus ordenes

            
            
Suggest correction
Creating personal tab
Creating personal tab
You can edit any tab online and save it as your Personal.

You can edit, replace or remove any tab part or add personal notes – all changes will be seen only by you.

Personal tabs can be accessed anytime from any device, even offline.
Learn more »
Give kudos to tab author, rate the tab!
1 2 3 4 5
comments
print report bad tab
guest
Wanna post a correction for this tab? Suggest correction