Oops, an error
Loading. Please wait.

Esta Noche Yo Haría tab

108 views 3 this week
no commentswrite comment
1 2 3 4 5
3 more votes to show rating
add to favorites
×
Save as Personal and add changes to this tab that will be seen only by you. Learn more ›
×
You can save this tab as Personal to edit and correct it or add notes. All changes will be seen only by you. Learn more »
launch autoscroll
font size
0
reset
how to read this tab
guitar tuner
edit
Autoscroll
slow
fast
+/-
esc
set tempo
stop
 En este tema no me voy a complicar mucho
tiene muchos detallitos pero lo basico os
lo pongo aquí, pues na, a disfrutar.


 Introducción:

     1ªGuit.       x2
e[---------------/---------------
B[---------------/-------6-4-3---
G[--5-3-2-3-3P2--/--5-3--5-3-2---
D[-------------3-/-------3-1-0---
A[-3-3-3-3-3-----/-3-3-3---------
E[---------------/---------------

  2ªGuit. x2
e[---------------/---------------
B[---------------/-------6-4-3---
G[---------------/-------5-3-2---
D[---------------/-------3-1-0---
A[---------------/---------------
E[---------------/---------------

    1ªGuit. X4
e[-------------------------------
B[------3------------------------
G[---5--2-3---3---3P2------------
D[---5----3---3--3----3----------
A[-3-----------------------------
E[-------------------------------

  2ªGuit.   (   X2   )
e[---------------------]e[------/-------
B[---------------------]B[------/-6-4-3-
G[----------------3P2--]G[------/-5-3-2-
D[-5-----------------3-]D[-5----/-3-1-0-
A[-3-------------------]A[-3----/-------
E[---------------------]E[------/-------

 Estrofa: Soy un hombre......

  1ªGuit.
e[---------------------------
B[----4---4-4-----6---6-4-3--
G[--5-3-5-3-3-5-3-5-3-5-3-2--
D[--5---5-----5-3---3-3-1-0--
A[---------------------------
E[---------------------------

  2ªGuit.
e[---------------------------/----------
B[---------------------------/-6-4-3----
G[--5---5---3---3-------3P2--/-5-3-2----
D[--5-X-5-X-3-X-3-X-3-X----3-/-3-1-0----
A[--3-X-3-X-1-X-1-X-3-X------/----------
E[------------------1--------/----------

La parte q dice "Cada vez q se acerca a mi..."
os pongo los acordes y os buscais la vida q no tengo
ganas de ponerme a sacar detallitos ni na.

 F8ª                      G#8ª
 Cada vez q se acerca a mi

 Mis piernas tiemblan... esta noche

Y el estribillo va de este palo:

                  C5  G5/F5/
 Esta noche yo haría

              G5     C5   G5/F5/
 Cualquier cosa yo haría

       G5  A5        C5    F5
 Por caer en tu lecho otra vez

   F5/G5
 Y dejar q me debores despues

Bueno lo de siempre, escucharos el tema
y no creo q tengais dudas ni na y en tal
caso pues o para quejaros o lo que sea
Slash_gibson20@
Un Saludo.
Suggest correction
Creating personal tab
Creating personal tab
You can edit any tab online and save it as your Personal.

You can edit, replace or remove any tab part or add personal notes – all changes will be seen only by you.

Personal tabs can be accessed anytime from any device, even offline.
Learn more »
Give kudos to tab author, rate the tab!
1 2 3 4 5
comments
print report bad tab
guest
Wanna post a correction for this tab? Suggest correction