Oops, an error
Loading. Please wait.

Qué Larga Es La Noche tab

38 views 1 this week
no commentswrite comment
1 2 3 4 5
3 more votes to show rating
add to favorites
×
Save as Personal and add changes to this tab that will be seen only by you. Learn more ›
×
You can save this tab as Personal to edit and correct it or add notes. All changes will be seen only by you. Learn more »
launch autoscroll
font size
0
reset
how to read this tab
guitar tuner
edit
Autoscroll
slow
fast
+/-
esc
set tempo
stop
Riff 1:
  LA9                  LA         RE9                          RE                     LA
e--------------------------------|----------------------------------------------------|
b--(0)-0-2--2--0---0---------0---|-(3)----------0------------------------0----020--0--|
g---2------------2---2-2--2----2-|--2-1-1--1--2---2--2-2-----2-1-1--1--2----12---21-2-|
d--(2)---------------------------|----------------------------------------------------|
a--------------------------------|----------------------------------------------------|
e--------------------------------|----------------------------------------------------|

Riff 2:
LA9      LA (como en el Riff 1) /   Mi      Re  (arpegiados como en el riff 3 parte 2)

Riff3:
LA       RE-LA          MI-LA  | No puedo seguir,    ni una sola noche más así.
e--------2-0---------------|-------0-------------2----
b(2)-0-2----(2)-0-2-0------|------0-------------3-----
g-2----------2--------2----|-----1-------------2------
d-2----------2-------------|----2-------------0-------
a--------------------------|---2----------------------
e--------------------------|--0-----------------------

El solo de guitarra no lo pongo...:S

*************

Riff 1
Riff 2
(ahora en el verso, la guitarra va como en el Riff 1)
LA9                  LA
Sé que esta noche no voy a dormir.
El sudor y los nervios se adueñan de mí,
RE9                              RE
y con la almohada empapada en sudor contar? los minutos...
¡Qué lento anda ahora ese reloj!

Este silencio me sienta fatal.
Los recuerdos se encienden en la oscuridad.
Si con un puñal yo pudiera matar esa imagen que nunca...
¡Nunca, nunca puedo borrar!

Riff3
MI                  RE                  LA
No puedo seguir ni una sola noche más así.


No estoy tan solo en mi habitación...
Me acompaña el latido de mi corazón
y con la almohada empapada en sudor contar? los minutos...
¡Qué lento anda ahora ese reloj!

Riff3
No puedo seguir ni una sola noche más así.

DO#            FA#            RE            LA
¡Qué larga es la noche si esperas el día!
DO#            FA#            RE9      RE      LA
Los sueños que busco no encuentro, en la oscuridad.

            
            
Suggest correction
Creating personal tab
Creating personal tab
You can edit any tab online and save it as your Personal.

You can edit, replace or remove any tab part or add personal notes – all changes will be seen only by you.

Personal tabs can be accessed anytime from any device, even offline.
Learn more »
Give kudos to tab author, rate the tab!
1 2 3 4 5
comments
print report bad tab
guest
Wanna post a correction for this tab? Suggest correction