Oops, an error
Loading. Please wait.

Si Miro A Las Nubes tab

version 2
version 2

Whole song

Interactive

84 views 3 this week
no commentswrite comment
1 2 3 4 5
3 more votes to show rating
add to favorites
×
Save as Personal and add changes to this tab that will be seen only by you. Learn more ›
×
You can save this tab as Personal to edit and correct it or add notes. All changes will be seen only by you. Learn more »
launch autoscroll
font size
0
reset
how to read this tab
guitar tuner
edit
Autoscroll
slow
fast
+/-
esc
set tempo
stop
k Ai!!, bueno pues yo voi a poner el solo 3 ke no puso el otro,
aer si entre los 3 la kitamos xD,
y tb la parte justo antes del solillo del ppio
ke aunke no parece k sea una guitar siempre mola tocarlo no?
asi k ahí vaaa..
(la notación esta iwal k en las otras):


El ppio tiene ke ser algo asi:  SOLm  LA#  DO  RE#
  tocaos cn cejilla todos
(la segunda vez se cambia el re# por FA, i empieza el solillo,
   donde repite acordes para el acompañamiento)


e |--------------------------3----------6------------------1---|
B |------3---------6-----5-----5----8-----10-8-------------1---|
G |----3---3-----7---7-----5----------8----------(repite)--2---|
D |--5---------8-------------------------------------------3---|
A |----------------------3----------6----------------------3---|
E |--3---------6-------------------------------------------1---|


I aki esta el solazo 3 ke ami se me suena mas o menos desta forma:


e |---11------------------------------------------------------|
B |------13----11----10---------------------------------------|
G |---------12----12----12-10-10b10---------------------------|
D |--------------------------------12-10/12?8h10p8------------|
A |-----------------------------------------------10-10~~-----|
E |-----------------------------------------------------------|


e |----------------11-----------------------------------------|
B |-----------6b------13----11----10----------11----13b13-11--|
G |---5b5-3--------------12----12----12-10-12----12-----------|
D |---------5-------------------------------------------------|
A |-----------------------------------------------------------|
E |-----------------------------------------------------------|

e |--13b-13-10h13p10----10------------------------------------|
B |------------------13----13-11-10-13-11-10h11p10------------|
G |------------------------------------------------12-11----- |
D |-----------------------------------------------------------|
A |-----------------------------------------------------------|
E |-----------------------------------------------------------|

e |------------------------------------------14b14?22b22------|
B |------------------------------------15b15------------------|
G |------------------------------11b11----------------------- |
D |--13-12-10--------------12b12------------------------------|
A |-----------13-12-10-9--------------------------------------|
E |-----------------------------------------------------------|


Luego vuelve al estribillo e luego toca una parte k no me se
(aunke en el solo suenan 2 guitarras, yo tmpoco esk hAya sacao las 2,
 pero asi yo creo k suena bastante bem)

espero k esto os sirva pa algo, pk la canción sk esta de puta madre..

            
            
Suggest correction
Creating personal tab
Creating personal tab
You can edit any tab online and save it as your Personal.

You can edit, replace or remove any tab part or add personal notes – all changes will be seen only by you.

Personal tabs can be accessed anytime from any device, even offline.
Learn more »
Give kudos to tab author, rate the tab!
1 2 3 4 5
comments
print report bad tab
guest
Wanna post a correction for this tab? Suggest correction