Oops, an error
Loading. Please wait.

Si Miro A Las Nubes tab

version 3
version 3

Whole song

Interactive

95 views 1 this week
no commentswrite comment
1 2 3 4 5
3 more votes to show rating
add to favorites
×
Save as Personal and add changes to this tab that will be seen only by you. Learn more ›
×
You can save this tab as Personal to edit and correct it or add notes. All changes will be seen only by you. Learn more »
launch autoscroll
font size
0
reset
how to read this tab
guitar tuner
edit
Autoscroll
slow
fast
+/-
esc
set tempo
stop
  Holas weno voy a poner unos trocitos de la cancion que
  no saco el colega de la otra tab (ke esta todo bien)


Simbolicos:
 / slide
 h hammer on
 p pull off
 ~ vibrato
 ^ bending de medio tono
 b bending de tono entero


  INTRO (0:12-0:38)


e |--------------------------------------------------------|
B |-----------3--6--3h6p3-5-----------------3--4--6--/8~---|
G |--------3-----------------5----------/5---------------- |
D |--/5~~-----------------------5~-------------------------|
A |--------------------------------------------------------|
E |--------------------------------------------------------|


e |-----------------------------------------------|
B |--6-4-3--4--6--4-3-5---------------------------|
G |----------------------5-----------5--7^7h5-3~~-|
D |-------------------------5-----7---------------|
A |-----------------------------------------------|
E |-----------------------------------------------|

e |------------------------------------------------|
B |-----3--6--3h6p3-5-----------------3--4--6-4-3~-|
G |--3-----------------5----------/5---------------|
D |-----------------------5~-----------------------|
A |------------------------------------------------|
E |------------------------------------------------|

e |-------------------------------------------------|
B |----------------------------------------6--6~~~^-|
G |--5-3-2--3--5---3-2-0-------------2--5-----5~~~^-|
D |-----------------------2------/3-----------------|
A |--------------------------3~~--------------------|
E |-------------------------------------------------|


 Riff resulton a dos guitarras (1:12)

GTR1:
e |--------------------------|
B |--------------------18b~~-|
G |--13b13h11----------------|
D |-----------13~------------|
A |--------------------------|
E |--------------------------|

GTR2:
e |--------------------------|
B |--------------------------|
G |--------------------17b~~-|
D |--13b13h11----------------|
A |-----------13~------------|
E |--------------------------|


 Solo 2 (3:15-3:28)


gtr1: G  A#  F  G

Ggtr2:
e |--------3-----------------|
B |--------------------------|
G |-3/5h6-----5-3-5b5h3------|
D |----------------------5~~-|
A |--------------------------|
E |--------------------------|


gtr1: G  A#  F  G

Ggtr2:
e |--------------------------|
B |--------------------------|
G |--------------------------|
D |--------------------------|
A |--3----~~~~~~-------------|
E |--------------------------|


gtr1: G  A#  F  G

Ggtr2:
e |-13b------13b--------------|
B |-13b--11--13b--13b13h11----|
G |------------------------12~|
D |---------------------------|
A |---------------------------|
E |---------------------------|


gtr1: G  A#  F  G

Ggtr2:
e |--------------------------|
B |--------------------------|
G |--10~~~~b-----------------|
D |--10~~~~b-----------------|
A |--------------------------|
E |--------------------------|


el solo 3 es a dos guitarras y ya ahi no llego xD
si puede ponerlo otro se lo agradezo

En cuanto al final de la cancion me parece
ke sobra por todos laos no pega con el resto
asike lo mismo ke el solo 3 ;D

            
            
Suggest correction
Creating personal tab
Creating personal tab
You can edit any tab online and save it as your Personal.

You can edit, replace or remove any tab part or add personal notes – all changes will be seen only by you.

Personal tabs can be accessed anytime from any device, even offline.
Learn more »
Give kudos to tab author, rate the tab!
1 2 3 4 5
comments
print report bad tab
guest
Wanna post a correction for this tab? Suggest correction