Oops, an error
Loading. Please wait.

Tenemos Que Entrar tab

75 views 1 this week
no commentswrite comment
1 2 3 4 5
3 more votes to show rating
add to favorites
×
Save as Personal and add changes to this tab that will be seen only by you. Learn more ›
×
You can save this tab as Personal to edit and correct it or add notes. All changes will be seen only by you. Learn more »
launch autoscroll
font size
0
reset
how to read this tab
guitar tuner
edit
Autoscroll
slow
fast
+/-
esc
set tempo
stop
  RE5
G|--10-9--12-10-9-9-10---10-9--12-10-9-10-9|
D|-----------------------------------------|
A|-----------------------------------------|      BAJO

  RE5
G|--10-9--12-10-9-9-10---10-9--12-10-9-10-9|
D|-----------------------------------------|
A|--------------------------------------1-3|      BAJO

  RE5
G|--10-9--12-10-9-9-10---10-9--12-10-9-10-9|
D|-----------------------------------------|
A|-5------------------------------------5/3|      BAJO

    SIb                   DO
G|--10-9--12-10-9-9-10---10-9--12-10-9-10-9|
D|---------------------------------------3-|      BAJO
A|-1--------------------------------------3|      BAJO

  RE5
G|--10-9--12-10-9-9-10---10-9--12-10-9-10-9|
D|-----------------------------------------|
A|/5------------------------------------1-3|

  RE5
G|--10-9--12-10-9-9-10---10-9--12-10-9-10-9|
D|-----------------------------------------|
A|-5------------------------------------5/3|      BAJO

    SIb                   DO
G|--10-9--12-10-9-9-10---10-9--12-10-9-10-9|
D|-----------------------------------------|      BAJO
A|-1---------------------------------------|      BAJO

  RE5
G|--10-9--12-10-9-9-10---10-9--12-10-9-10-9|
D|-----------------------------------------|
A|--------------------------------------1-3|

...Una ventanas tapiadas...

Estos riffs se van metiendo trozito a trozito entre versos de  
la canción. están en orden, como los acordes (VER partitura de 
acordes de esta canción, aquí en atame)

Al final de la canción se repite todo el riff, pero con RE MAYOR, 
así que cuando la cuerda G sea un 10, pasalo a un 11.
Suggest correction
Creating personal tab
Creating personal tab
You can edit any tab online and save it as your Personal.

You can edit, replace or remove any tab part or add personal notes – all changes will be seen only by you.

Personal tabs can be accessed anytime from any device, even offline.
Learn more »
Give kudos to tab author, rate the tab!
1 2 3 4 5
comments
print report bad tab
guest
Wanna post a correction for this tab? Suggest correction