Oops, an error
Loading. Please wait.

Tras La Barra bass

version 1
version 1

Whole song

Interactive

70 views 1 this week
no commentswrite comment
1 2 3 4 5
3 more votes to show rating
add to favorites
×
Save as Personal and add changes to this tab that will be seen only by you. Learn more ›
×
You can save this tab as Personal to edit and correct it or add notes. All changes will be seen only by you. Learn more »
launch autoscroll
font size
0
reset
guitar tuner
backing track
0:00
0:00
edit
Autoscroll
slow
fast
+/-
esc
set tempo
stop
GorKa Limotxo trabaja de camarero

G||-------------------------------------
D||-------------------------------------
A||--5------55--------------------------
E||-----------------5----------55-------

     En una barra encerrado todo el tiempo.

G||-------------------------------------
D||-------------------------------------
A||-------------------------------------
E||--7------77-------7--------77--------

Aguanta al jefe, aguanta a la señora

G||-------------------------------------
D||-------------------------------------
A||--5---------55-----------------------
E||----------------------5---------55---

Oye chaval! Un licor de chirimoya

G||-------------------------------------
D||---------------------------------97--
A||-----------------------------------97
E||--7---------77--------7---------7----

Son las cinco llega la pesadilla

G||-------------------------------------
D||-------------------------------------
A||--5-5-5-5-5?5-5-5--------------------
E||--------------------5-5-5-5-5-5-5-5--

Café, tostadas, bollos y manzanillas

G||-------------------------------------
D||----------------------------97-------
A||-----------?------------------97-----
E||--2-2-2-2-2-2-2-2---2-2-2-2----------

Entre calores y una vieja cafetera

G||-------------------------------------
D||-------------------------------------
A||--5-5-5-5-5?5-5-5--------------------
E||--------------------5-5-5-5-5-5-5-5--

Gorka Limotxo trabaja pero sueña

G||-------------------------------------
D||-------------------------------------
A||-----------?-------------------------
E||--2-2-2-2-2-2-2-2---2-2-2-2-2-2-2----
El estribillo es:

        Este maldi, maldito trabajo
G||----------------------------------------
D||---------4------4------4------4---------
A||-----4-4----4-4----4-4----4-4-----------
E||----------------------------------------

        Voy a mandar a todos al carajo
G||----------------------------------------
D||-----5----------------------------------
A||----------------------------------------
E||------------------5-5-----5-5-----------

     Tras la barra del bar una vida se va
G||---------------------------------------
D||---------------------------------------
A||--5----0--2-------------5-0-2----00000-
E||------------3---3-?-3---------3--------


     Tras la barra del bar una vida
G||---------------------------------------
D||---------------------------------------
A||--5----0--2-0-----------5-0-2----------
E||----------------3-?-3---------3---3s5s3

(En el último Sol(G)se hace un ligado hasta La(A)y se vuelve a Sol(G)).

El puente va como al principio:

G||-------------------------------------
D||-------------------------------------
A||--5---------55-----------------------
E||----------------------5---------55---


G||-------------------------------------
D||-------------------------------------
A||-------------------------------------
E||--7------77-------7--------77--------

Se repite todo hasta después del segundo puente:

Gasta por la noche lo que gana por el día
G||--------------------------------------------
D||--------------------------------------------
A||---5----------------------------------------
E||-----------------------------5--------------

Su futuro tiene forma de un billete lotería

G||--------------------------------------------
D||----------------------------------------97--
A||------------------------------------------97
E||---7-------------------------7--------------


Tomará unas copas se ha acabado su jornada
G||--------------------------------------------
D||--------------------------------------------
A||---5----------------------------------------
E||-----------------------------5--------------

Atrapado a una botella dentro y fuera de la barra
G||--------------------------------------------
D||--------------------------------------------
A||---2--------------2-------2-0---------------
E||------------------------------3-------------

La parte final con los parones va:

G||--------------------------------------------
D||--------------------------------------------
A||---5----0----202----------5----0----202-----
E||--------------------------------------------

La terminación para vosotros, la del directo está bien
pero yo hago otra distinta, cuidando eso sí que encaje
con los acordes de la guitarra. Es mi primera trascripción,
 así que espero críticas y sugerencias en mi correo.
Esta canción la llevo años versioneando con mi grupo Alma Letal,
 si queréis conocernos no dudéis en visitar 
Un saludo y viva platero!

            
            
Suggest correction
Creating personal tab
Creating personal tab
You can edit any tab online and save it as your Personal.

You can edit, replace or remove any tab part or add personal notes – all changes will be seen only by you.

Personal tabs can be accessed anytime from any device, even offline.
Learn more »
Give kudos to tab author, rate the tab!
1 2 3 4 5
comments
print report bad tab
guest
Wanna post a correction for this tab? Suggest correction