Oops, an error
Loading. Please wait.

Tras La Barra tab

version 1
version 1

Whole song

Interactive

211 views 1 this week
no commentswrite comment
1 2 3 4 5
3 more votes to show rating
add to favorites
×
Save as Personal and add changes to this tab that will be seen only by you. Learn more ›
×
You can save this tab as Personal to edit and correct it or add notes. All changes will be seen only by you. Learn more »
launch autoscroll
font size
0
reset
how to read this tab
guitar tuner
backing track
0:00
0:00
edit
Autoscroll
slow
fast
+/-
esc
set tempo
stop
Nota 1: En realidad suena a que hace bends y releases en general en la
 introducción, pero así es factible en la española, y si no que cada
 uno le de su toque con la eléctrica ;)

Nota 2: Si vas a tocarla con eléctrica puedes obviar los acordes
 mayores o menores y limitarte a usar quintas que es como suena
 en la canción, salvo en la última estrofa donde arpegia y sí los
 toca "normales".

Nota 3: Pongo los acordes por verso y separados por "||", no veo
 necesario indicar exactamente dónde encaja en la letra, es
 cuestión de tocarlo y pillarle el ritmo y siempre es igual, y así
 no hay que ir scroll-eando para abajo mucho ;).

Nota 4: Sí, dice "Gorka-limotxo". Para los no-españoles, Gorka es
 un nombre en euskera del País Vasco, de donde es la banda.
 Pueden comprobarlo en su web: 

Nota 5: El solo lo hace ya empezando más allá del traste 12, en la pentatónica
 menor de B (que es la que cuadra en la tonalidad de G en que está la canción),
 aunque llega a meter alguna nota de la mayor de G como el propio G del traste
 15 de la primera cuerda. No lo he incluido.

¡A disfrutarla! (Críticas y comentarios a 

Introducción y el "puente" de antes de la última estrofa:
e |----------------------------------------|-----------------------------|
B |--------10--------------10--------------|-----------------------------|
G |-(9)/11-----11p9\7--9-------11p9\7------|----7-9/11p9\7h9p7-----------|
D |-----------------------------------9----|--9--------------------------|
A |----------------------------------------|-----------------------------|
E |----------------------------------------|-----------------------------|

e |----------------------------------------|-----14-15-17-15p14h15h14----|
B |--------10-------------10---------12-10-|--15-------------------------|
G |-(9)/11-----11p9\7--9------11p9\7-------|-----------------------------|
D |----------------------------------------|-----------------------------|
A |----------------------------------------|-----------------------------|
E |----------------------------------------|-----------------------------|

D A || Bm Bm || D A || Bm Bm
Gorka-limotxo trabaja, camarero
En una barra encerrado todo el tiempo
Aguanta al jefe y aguanta a las señoras
Oye, chaval, un licor de chirimoya.

D A || Bm Bm || D A || Bm Bm
Son las cinco, llega la pesadilla
Café cortado, bollos y manzanillas
Entre calores y una vieja cafetera
Gorka-limotxo trabaja, pero sueña.

Estribillo:
  F# || G A
  Este maldito trabajo
  Voy a mandar a todos al carajo.

  D    A    Bm - G || idem || idem || idem
  Tras la   barra del bar
  Una vida se va
  Tras la barra del bar
  Una vida...

D A || Bm Bm || D A || Bm Bm
Pero los sueños se ven interrumpidos
Por esa gente que pide todo a gritos
Limpia la barra y aprieta los dientes
Al otro lado la gente se divierte.

D A || Bm Bm || D A || Bm Bm
A esa señora no la debes replicar
La educación siempre es algo fundamental
Tras cinco años llegó a la conclusión:
Siempre el cliente no tiene la razón.

Estribillo

D A || Bm Bm || D A || Bm G
Gasta por la noche lo que gana por el día
Su futuro tiene forma de un billete de lotería
Tomará unas copas, ha acabado su jornada
Atrapado a una botella... dentro y fuera de la barra.
                                   ^
                                   | Aquí caería ese G del final

            
            
Suggest correction
Creating personal tab
Creating personal tab
You can edit any tab online and save it as your Personal.

You can edit, replace or remove any tab part or add personal notes – all changes will be seen only by you.

Personal tabs can be accessed anytime from any device, even offline.
Learn more »
Give kudos to tab author, rate the tab!
1 2 3 4 5
comments
print report bad tab
guest
Wanna post a correction for this tab? Suggest correction