Oops, an error
Loading. Please wait.

Un Abc Sin Letras tab

version 2
version 2

Whole song

Interactive

28 views 1 this week
no commentswrite comment
1 2 3 4 5
3 more votes to show rating
add to favorites
×
Save as Personal and add changes to this tab that will be seen only by you. Learn more ›
×
You can save this tab as Personal to edit and correct it or add notes. All changes will be seen only by you. Learn more »
launch autoscroll
font size
0
reset
how to read this tab
guitar tuner
edit
Autoscroll
slow
fast
+/-
esc
set tempo
stop
Correcion del tab q esta ay rulando.

En este tab me molestare en poner las dos
guitarras porque creo q la situacion lo requiere.

Introducción:


  1ªGuit.    x2 veces
e[-----------------------------------------------]
B[-----------------------------------------------]
G[------------------2---2------------------------]
D[-4--4-----4-4-----2-x-2-------4-----4-4-----2--]
A[-2--2-5-5-----5-2-0-x-0-------2-5-5-----5-2-0--]
E[-----------------------------------------------]

     2ªGuit.
e[-------------------------------------------------]
B[----------------------------------------------10-]
G[----------------------------------------------9--]
D[------------------------------4---------------7--]
A[------------------------5-4-2-2------------------]
E[-------------------------------------------------]

  2ªGuit.
e[--------------------------------------------------]
B[--------------------------------------------------]
G[------------------2---2-------------------5-------]
D[-4-4-4-4-4-4-4-4--2-X-2---------------4-4---7^(8)-]
A[-2-2-2-2-2-2-2-2--0-X-0-5-4-2-2-2-5-5-------------]
E[--------------------------------------------------]

  1ªGuit.
   Ando por las calles....
e[-----------------------------------/entre parentesis
B[-----------------------------------/la ultima nota que
G[--------------------*--------------/se da antes de entrar
D[-4--2-4-----4-4-----(2---2)--------/en el estribillo
A[-2--0-2-5-5-----5-2-(0-X-0)5-4-2---/
E[-----------------------------------/


     2ªGuit. Este riff hasta q entre el estribillo
e[---------------------------------------]
B[-X-12-X-12-X-12-X-12-X-10--10--10--10--]
G[-X-11-X-11-X-11-X-11-X-9---9---9---9---]
D[-X-9--X-9--X-9--X-9--X-7-X-7-X-7-X-7---]
A[---------------------------------------]
E[---------------------------------------]


     3ªGuit.*
e[-----7----7---------5----5----7---------]
B[------------------------------6---------]
G[-6^7--6^7--6^7--5^6--5^6--5^6-----------]
D[----------------------------------------]
A[----------------------------------------]
E[----------------------------------------]

*Es un fraseillo q meten en la grabación despues
de hacer dos veces el riff de la 2ªguit. esta sigue
y entra la 3 guit. haced lo q mas os mole o toda
la estrofa el riff de la 2ªguit. o el frasillo.

Estribillo:Pero tu, tu, tu.......

  1ªGuit. X3 VECES           / Soy un.....
e[---------------------------/----------------]
B[-3-3-3---------------------/----------------]
G[-2-4-2-X-------------------/----------------]
D[-0-0-0---2-2-4-2--2-2-4-2--/----------------]
A[---------0-0-0-0--0-0-0-0--/-5----5---4-----]
E[---------------------------/-3----3---2-----]

  2ªGuit. x3VECES
e[---------------------------/----------------]
B[---------------------------/----------------]
G[---------------------------/-7----7---6-----]
D[-7-7-7---------------------/-5----5---4-----]
A[-5-5-5---7-7-8-7-7-7-8-7---/----------------]
E[---------5-5-5-5-5-5-5-5---/----------------]

Despues repetis todo desde el principio praticamente
Escucharos el tema y lo estructurareis mejor y vereis
como van los tiempo, no pongo el solo por no hacer diez
mil paginas, pero podeis mandarme un e-mail y lo cuelgo
u os lo mando o lo que me de la gana.
para dudas,quejas y demas. Slash_gibson20@
Un saludo.

            
            
Suggest correction
Creating personal tab
Creating personal tab
You can edit any tab online and save it as your Personal.

You can edit, replace or remove any tab part or add personal notes – all changes will be seen only by you.

Personal tabs can be accessed anytime from any device, even offline.
Learn more »
Give kudos to tab author, rate the tab!
1 2 3 4 5
comments
print report bad tab
guest
Wanna post a correction for this tab? Suggest correction