Oops, an error
Loading. Please wait.

Porque Tenía Que Conocerte tab

26 views 1 this week
no commentswrite comment
1 2 3 4 5
3 more votes to show rating
add to favorites
×
Save as Personal and add changes to this tab that will be seen only by you. Learn more ›
×
You can save this tab as Personal to edit and correct it or add notes. All changes will be seen only by you. Learn more »
launch autoscroll
font size
0
reset
how to read this tab
guitar tuner
edit
Autoscroll
slow
fast
+/-
esc
set tempo
stop
bueno hermanos, sta rola sta bastante llagadora, como para
ponerse a chupar, sta "pisteable", y ps ai c las mando
completa, spero les lata, c la kiero dedicar a

           "KARINA ZARCO JIMENEZ"


"Porque tenía que conocerte
porque cambio mi vida así
porque para mi mala suerte
no puedo arrancarte de mi"

ES EL INTRO DEL ACORDEON


INTRO: F7  F  F7  A#  Cm  F  Cm  F  A#  F7  F  F7  A#


G---------------------------------------------------------
B----------------11---------------------------------------
e-8-10-8-11--10-8---8-10----8-10-11-10-8-10-8-8-11-8-13---

G--------------------------------------------------------------
B-------------------------------------11-----------------------
e-11-10-8-10-11-10-11-10-13--11-10-11----13-13-11-11-10-10-8-7-


    A#                      Bm       Cm
A pesar que tu vida ya era de otra persona
     E
sin dudar, tú dejaste que entrara en tu mundo
                         A#   A#sus7
y tu piel hasta ser tu sombra

   Gm                     D#
A pesar de lo que hemos vivido
                  Cm
hoy me dices tan fácil
                F
que te has arrepentido

Coro:

  F7     F    F7    A#
Porque tenía que conocerte
                      Cm
porque cambio mi vida así
  F                  Cm
porque para mi mala suerte
 F                   A#   F
no puedo arrancarte de mi


  F7     F    F7    A#
Porque tenía que conocerte
                    Cm
porque me enamore de ti
    F                 Cm
si yo sabia que ese cariño
  F                  A#
nunca lo dejarías por mi

Puente: F7  F  F7  A#  Cm  F  Cm  F  A#  F7  F  F7  A#


G---------------------------------------------------------
B----------------11---------------------------------------
e-8-10-8-11--10-8---8-10----8-10-11-10-8-10-8-8-11-8-13---

G--------------------------------------------------------------
B-------------------------------------11-----------------------
e-11-10-8-10-11-10-11-10-13--11-10-11----13-13-11-11-10-10-8-7-

            
            
Suggest correction
Creating personal tab
Creating personal tab
You can edit any tab online and save it as your Personal.

You can edit, replace or remove any tab part or add personal notes – all changes will be seen only by you.

Personal tabs can be accessed anytime from any device, even offline.
Learn more »
Give kudos to tab author, rate the tab!
1 2 3 4 5
comments
print report bad tab
guest
Wanna post a correction for this tab? Suggest correction