Oops, an error
Loading. Please wait.

Camarón Pelao tab

118 views 1 this week
no commentswrite comment
1 2 3 4 5
3 more votes to show rating
add to favorites
×
Save as Personal and add changes to this tab that will be seen only by you. Learn more ›
×
You can save this tab as Personal to edit and correct it or add notes. All changes will be seen only by you. Learn more »
launch autoscroll
font size
0
reset
how to read this tab
guitar tuner
edit
Autoscroll
slow
fast
+/-
esc
set tempo
stop
Un saludo a todos los ex-integrantes del grupo musical la
Raza Unida y a todos los que les gusta la musica guapachosa
les dejo esta viejita pero bonita.

Introducción: arreglo para dos guitarras que tocan
al mismo tiempo.


 PRIMERA GUITARRA: D                  A7
E---------------------------------------------
B---------------------------------------------
G----4---4---4--4/5-----4---4---4--4/5--------
D--5---5---5----------5---5---5--------------
A---------------------------------------------
E---------------------------------------------
                                       D
E---------------------------------------------
B----------------------2--0-------------------
G----4---4---4--4/5----------2--0-------------
D--6---6---6-----------------------4-2-0------
A---------------------------------------------
E---------------------------------------------

 SEGUNDA GUITARRA
                D                     A7
E---------------------------------------------
B---------------------------------------------
G----2---2---2--2/4------2---2---2--2/4-------
D--4---4---4-----------4---4---4--------------
A---------------------------------------------
E---------------------------------------------
                                         D
E---------------------12--10--9---------------
B--------------------------------12--10-------
G----2---2---2--2/4---------------------12-11-
D--5---5---5----------------------------------
A---------------------------------------------
E---------------------------------------------

  SE REPITE DOS VECES Y SIGUE
                 D                    A7
Tu me pides camarón y yo te lo voy a dar
                                        D
yo te quiero corazón por ti lo voy a pescar
                                        A7
ahí tengo mi piragua muy cerquita del palmar
                                               D
pronto voy a estar en l'agua para ponerme a pescar

                                           A7
Camarón pelao tu quieres camarón pelao te doy
                                             D
camarón pelao prefieres con salsita y con limón
                                           A7
Camarón pelao tu quieres camarón pelao te doy
                                             D
camarón pelao prefieres con salsita y con limón


     Introducción
                     D                      A7
Cuando vamos a la playa llevo mi botella e'ron
                                            D
tambien llevo mi guitarra p'alegrar el corazón
                                         A7
ahí tengo mi piragua muy cerquita del palmar
                                                D
pronto voy a estar en l'agua para ponerme a pescar

                                          A7
Camarón pelao tu quieres camarón pelao te doy
                                             D
camarón pelao prefieres con salsita y con limón
                                           A7
Camarón pelao tu quieres camarón pelao te doy
                                             D
camarón pelao prefieres con salsita y con limón

  SE REPITE TODA.

            
            
Suggest correction
Creating personal tab
Creating personal tab
You can edit any tab online and save it as your Personal.

You can edit, replace or remove any tab part or add personal notes – all changes will be seen only by you.

Personal tabs can be accessed anytime from any device, even offline.
Learn more »
Give kudos to tab author, rate the tab!
1 2 3 4 5
comments
print report bad tab
guest
Wanna post a correction for this tab? Suggest correction