Oops, an error
Loading. Please wait.

Policía De Mierda tab

26 views 1 this week
no commentswrite comment
1 2 3 4 5
3 more votes to show rating
add to favorites
×
Save as Personal and add changes to this tab that will be seen only by you. Learn more ›
×
You can save this tab as Personal to edit and correct it or add notes. All changes will be seen only by you. Learn more »
launch autoscroll
font size
0
reset
how to read this tab
guitar tuner
edit
Autoscroll
slow
fast
+/-
esc
set tempo
stop
INTRO:
E|---------------------|
B|---------------------|
G|-8~~-------4~~-------|
D|-8~~--8~~--4~~--4~~--|
A|-6~~--8~~--2~~--4~~--|
E|------6~~-------2~~--|

E|----------------------------------------------------|
B|----------------------------------------------------|
G|---10--8-10-----12-10-101210----10--8-10-----12-10--|
D|-8------------10--------------8-----------10--------|
A|----------------------------------------------------|
E|----------------------------------------------------|

F5              C5
En cualquiero concierto
      G5       D5
O en un bonito bar
F5            C5
en tu barrio una redada
    G5             D5
en el estadio ellos siempre estan
F5              C5
son los cerdos policias
     G5          D5
con sus bolillos te pegaran
F5         C5
y sin tu darte cuenta
 G5        D5
detenido te llevaran

E|----------------------------|
B|----------------------------|
G|---10-8-10-----12-10-101210-| x4
D|-8----------10--------------|
A|----------------------------|
E|----------------------------|


CORo:
F5             C5
Si eres calvo suberciso
  G5              D5
y un mechudo eres un ladron
F5             C5
si eres punky mal vestido
  G5            D5
y drogadicto te dicen cabron

E|----------------------------|
B|----------------------------|
G|---10-8-10-----12-10-101210-| x4
D|-8----------10--------------|
A|----------------------------|
E|----------------------------|

F5          C5
Si tegusta caminar
G5            D5
nunca olvides tus papales
F5            C5
pues en esta puta ciudad
G5            D5
solo eres un numero mas

E|----------------------------|
B|----------------------------|
G|---10-8-10-----12-10-101210-| x4
D|-8----------10--------------|
A|----------------------------|
E|----------------------------|


CORo:
F5             C5
Si eres calvo suberciso
  G5              D5
y un mechudo eres un ladron
F5             C5
si eres punky mal vestido
  G5            D5
y drogadicto te dicen cabron

E|--------------------------|-------------|
B|---------------------X4---|-------------|
G|--------------------------|-12~~--12~~--|
D|-10-10-10-10--12121210~~--|-12~~--12~~--|
A|-10-10-10-10--12121210~~--|-10~~--10~~--|
E|-8--8--8--8---1010108~~~--|-------------|

F5                     C5
Me cago en el sisitema estamos jodidos
G5              D5
con esos tombos malparidos!!!!!


E|----------------------------|----|
B|----------------------------|----|
G|---10-8-10-----12-10-101210-|-10-|
D|-8----------10--------------|-10-|
A|----------------------------|-8--|
E|----------------------X4----|----|


ACORDES:
E|----X----X----X----X----|
B|----X----X----X----X----|
G|----12---X----10---X----|
D|----12---12---10---10---|
A|----10---12---8----10---|
E|----X----10---X----8----|
      G5   D5   F5   C5

* DUDAS, CORRECCIONES O COMENTARIOS A ROCKANDRES182@

            
            
Suggest correction
Creating personal tab
Creating personal tab
You can edit any tab online and save it as your Personal.

You can edit, replace or remove any tab part or add personal notes – all changes will be seen only by you.

Personal tabs can be accessed anytime from any device, even offline.
Learn more »
Give kudos to tab author, rate the tab!
1 2 3 4 5
comments
print report bad tab
guest
Wanna post a correction for this tab? Suggest correction