Oops, an error
Loading. Please wait.

Niña Olga Vodka tab

44 views 3 this week
no commentswrite comment
1 2 3 4 5
3 more votes to show rating
add to favorites
×
Save as Personal and add changes to this tab that will be seen only by you. Learn more ›
×
You can save this tab as Personal to edit and correct it or add notes. All changes will be seen only by you. Learn more »
launch autoscroll
font size
0
reset
how to read this tab
guitar tuner
edit
Autoscroll
slow
fast
+/-
esc
set tempo
stop
/    = Slide
p    = Pull off

Tuning: Standard E


    Fm   A#m    C
e|--1-----1-----3--|
B|--1-----2-----5--|
G|--1-----3-----5--|
D|--3-----3-----5--|
A|--3-----1-----3--|
E|--1-----1-----3--|


Intro: Fm - A#m - C - A#m - Fm


Guitarra (con chorus y reverb)

e|-1-1--3-4-3--1-1--0-1/10---1-1--3-4-3-----|
B|--------------------------------------1~~-|
G|------------------------------------------|
D|------------------------------------------|
A|------------------------------------------|
E|------------------------------------------|


e|-4-3-1--0-1--0-1-0-1-0-1/3--3p0-----------|
B|--------------------------------1~--0-1~--|
G|------------------------------------------|
D|------------------------------------------|
A|------------------------------------------|
E|------------------------------------------|


Fm
Igor Stravinski se fue


A buscar a su niña favorita

      A#m
Ella vive sola con su abuelita

 C    A#m    Fm
Niña, Olga, Vodka.


Fm
Ella tiene solamente trece años


una como un ave que yace en su nido

             A#m
Pero en las noches se va a buscar a su hombre

 C   A#m     Fm
Niña, Olga, Vodka.


Fm - A#m - C - A#m - Fm


Fm
Igor Stravinski es el director


de una escuela primaria

             A#m
pero en las noches se va a caminando por Petroskoi

 C   A#m     Fm
Niña, Olga, Vodka.


      Fm
A un parque muy obscuro ellos van


La nieve se derrite debajo de sus pies

  A#m
Halaron con la estarua de Rasputin

 C   A#m     Fm
Niña, Olga, Vodka.


(Durante el solo del clarinete y teclado la guitarra hace un Fm)


Fm
no se ke* pecado dice Igor Stravinsky

                                A#m
y pasa la botella a su amiga y dice


toma toma*

 C   A#m     Fm
Niña, Olga, Vodka.


Fm
Ella desperto en la cama de Igor


Media desnuda y sin recuerdos

    A#m
Su cuello lleno de manchas

 C   A#m     Fm
Niña, Olga, Vodka.

 C   A#m     Fm
Niña, Olga, Vodka.


A#m - C - A#m - C - A#m - Fm

Hey!!


*Disculpen la letra, pero en algunas partes no se entiende,
cualquier duda, espero sus comentarios.


Tabbed by:

Charly
valek2002@
Suggest correction
Creating personal tab
Creating personal tab
You can edit any tab online and save it as your Personal.

You can edit, replace or remove any tab part or add personal notes – all changes will be seen only by you.

Personal tabs can be accessed anytime from any device, even offline.
Learn more »
Give kudos to tab author, rate the tab!
1 2 3 4 5
comments
print report bad tab
guest
Wanna post a correction for this tab? Suggest correction