Oops, an error
Loading. Please wait.

Alegría Navarra tab

50 views 1 this week
no commentswrite comment
1 2 3 4 5
3 more votes to show rating
add to favorites
×
Save as Personal and add changes to this tab that will be seen only by you. Learn more ›
×
You can save this tab as Personal to edit and correct it or add notes. All changes will be seen only by you. Learn more »
launch autoscroll
font size
0
reset
how to read this tab
guitar tuner
edit
Autoscroll
slow
fast
+/-
esc
set tempo
stop
NOTA: Todos los acordes son quintas.


INTRO: G,  D C# C,  C C# D,  D C# G,  D


         G         C           D                  G
e|-------------------------------------------------------------|
B|-------------------------------------------------------------|
G|-------------------------------------------------------------| D(X6)
D|-----------------------5-----------7-9-7-9^10-7--------------|
A|-------5-------5-7-6-7---7---9-8-9--------------------5------|
E|-7-6-7---7-6-7-------------8--------------------7-6-7---7----|

         G                           C
e|-----------------------------------------------------
B|-----------------------------------------------------
G|-----------------------------------------------------
D|-----------------------------------5-----7>8-7-------
A|-------5-7-5-7^8-7-5---5-----7-6-7---7---------9-7---
E|-7-6-7---------------8---8-7-----------8-------------


   D                    G
e|---------------------------------|
B|---------------------------------|
G|---------------------------------| D(X6)
D|-------7-9-7-9^10-7--------------|
A|-9-8-9--------------3/5-3--------|
E|--------------------------5-3----|


            C
Por qué cantar, olvidamé
              G
ya me he aburrido

Por qué cantar si ya
                    C
no le encuentro sentido


Por qué cantar, por qué razón
          G
por qué motivo

Por qué cantar cuando ya
              C
todo está perdido


El mundo en el que vivo
             G
es el mundo de la oscuridad
                                     C
El mundo en el que vivo es para vomitar


El mundo en el que vivo
              G
no está para mucho paripé
                                  C
Ya no quiero cantar así que cantaré

                                   G
Voy a cantar para olvidarme de mi vida
                               C
Voy a cantar necesito una emoción
                                    G
Voy a cantar porque la cosa está jodida
                                      C
Y cantaré hasta hacer sangrar mi corazón

                         G
Lo lo loro lo  Lo lo lo lolo loro lo
                         C
Lo lo loro lo  Lo lo lo lo
                         G
Lo lo loro lo  Lo lo lo lolo loro lo
                         C
Lo lo loro lo  Lo lo lo lo


         G         C           D                          G         D
e|-----------------------------------------------------------------|
B|-----------------------------------------------------------------|
G|-----------------------------------------------------------------|
D|-----------------------5-----------7-9-7-9^10-7---7--------------|
A|-------5-------5-7-6-7---7---9-8-9--------------9---9-7-------5--|
E|-7-6-7---7-6-7-------------8----------------------------7-6-7---7|


          G                    C
e|-----------------------------------------------------
B|-----------------------------------------------------
G|-----------------------------------------------------
D|-----------------------------------5-----7>8-7-------
A|-------5-7-5-7^8-7-5---5-----7-6-7---7---------9-7---
E|-7-6-7---------------8---8-7-----------8-------------


   D                    G
e|---------------------------------|
B|---------------------------------|
G|---------------------------------| D(X6)   C
D|-------7-9-7-9^10-7--------------|
A|-9-8-9--------------3/5-3--------|
E|--------------------------5-3----|


Eso es todo... ezpero lez sea mas util
Komentarios, sugerenzias o petizionez al korreo
chonitoramone_sk8punk@

            
            
Suggest correction
Creating personal tab
Creating personal tab
You can edit any tab online and save it as your Personal.

You can edit, replace or remove any tab part or add personal notes – all changes will be seen only by you.

Personal tabs can be accessed anytime from any device, even offline.
Learn more »
Give kudos to tab author, rate the tab!
1 2 3 4 5
comments
print report bad tab
guest
Wanna post a correction for this tab? Suggest correction