Oops, an error
Loading. Please wait.

Así Es La Vida bass

296 views 1 this week
no commentswrite comment
1 2 3 4 5
3 more votes to show rating
add to favorites
×
Save as Personal and add changes to this tab that will be seen only by you. Learn more ›
×
You can save this tab as Personal to edit and correct it or add notes. All changes will be seen only by you. Learn more »
launch autoscroll
font size
0
reset
guitar tuner
edit
Autoscroll
slow
fast
+/-
esc
set tempo
stop
Empieza la guitarra acompañada con el bajo que hace esto:

G------------------------
D------------------------
A----5----5----5----5----
E------------------------

_______________________________________________________________________

Luego entra esta parte, que cuando venga el estribillo será esto mismo:

G--------------------------------------------------
D--------------------------------------------------
A----5--5--------5--5--------5--5--------5--5------
E----------3--3--------3--3--------3--3--------3--3

G--------------------------------------------------
D--------------------------------------------------
A----5--5--------5--5--------5--5--------5--5--5--5
E----------3--3--------3--3--------3--3------------

_______________________________________________________________________

Y ahora la parte de la estrofa:

G--------------------------
D--------------------------
A--5-5-4-4-5-5-4-4-5--4-5--
E-------------------------- x2

G-----------------------------------------------------
D-----------------------------------------------------
A--5-5-4-4-5-5-4-4-5--4-5/17-17-17-17-17-17-17-17-17--
E-----------------------------------------------------

_______________________________________________________________________

Bueno y ya lo único que queda es la parte del solo de guitarra.
Cuando termina el segundo estribillo, el bajo hace esto:

G--------------------------
D--------------------------
A--5-5-4-4-5-5-4-4-5--4-5--
E-------------------------- x2

G-----------------------------------
D-----------------------------------
A--5-5-5-5-5-5-5-5-5-5-5-5-5-5-5-5--
E-----------------------------------

Y luego lo mismo que en el estribillo.

_______________________________________________________________________

Pues esto ha sido todo, así es como la toco yo, así que si encontrais
algún fallo avisarme y si no lo encontrais me alegro!

Venga, disfrutad del tema!!  farlopalarata@

            
            
Suggest correction
Creating personal tab
Creating personal tab
You can edit any tab online and save it as your Personal.

You can edit, replace or remove any tab part or add personal notes – all changes will be seen only by you.

Personal tabs can be accessed anytime from any device, even offline.
Learn more »
Give kudos to tab author, rate the tab!
1 2 3 4 5
comments
print report bad tab
guest
Wanna post a correction for this tab? Suggest correction