Oops, an error
Loading. Please wait.

Iván bass

76 views 1 this week
no commentswrite comment
1 2 3 4 5
3 more votes to show rating
add to favorites
×
Save as Personal and add changes to this tab that will be seen only by you. Learn more ›
×
You can save this tab as Personal to edit and correct it or add notes. All changes will be seen only by you. Learn more »
launch autoscroll
font size
0
reset
guitar tuner
edit
Autoscroll
slow
fast
+/-
esc
set tempo
stop
                                                  x Matias sellanes!!
tab. bass

intro:
primera buelta guitarra y despues bajo y bateria

4----------7---7---7-5--------------
3-7---7---7--9---9-----7---7-7------
2---9---9----------------7-----9-9--
1-------------------------------9-9-


Esta historia, que pudo ser verdad,
parece mentira, la vamos a contar...

4----------7---7---7-5--------------
3-7---7---7--9---9-----7---7-7------  x 2
2---9---9----------------7-----9-9--
1-------------------------------9-9-

4----------7---7---7-5-----------------
3-7---7---7--9---9-----7---7-7---7-7---
2---9---9----------------7-----9-----9-
1--------------------------------------

En la Rusia del bienamado Zar (¡el Zar!)
vivía un aldeano llamado Iván
Trabajando la tierra sin parar,
pasando mucha hambre, sin tiempo pa pensar

4-----------7-7-8-7-5---5-7--7-0--
3-7-5-7-9-7-----------7-----5---- x2
2--------------------------------
1--------------------------------


Siembra y siembra y siembra que te siembra
y el conde Gorronovicht se queda la cosecha (¡Olé!)

4----------7---7---7-5--------------
3-7---7---7--9---9-----7---7-7------
2---9---9----------------7-----9-9--
1-------------------------------9-9-

El Curilla pide resignación,
se invita a su casa y se come lo mejor

4-----------7---7---7-5-------------
3-7---7---7---9---9-----7---7-7---7-
2---9---9-----------------7-----9---
1-----------------------------------

Estribillo:

mi la do si                             Mi la do
4----------5-5-5-5-5------------------- 1-0-0-0-0-0-5-5-5-5-5-8-8-8-8-8-
3-7-7-7-7-7---------3-3-3-3-3-2-2-2-2-2 2------------------------------
2-------------------------------------- 3-----------------------------
1-------------------------------------- 4------------------------------

si la sol fa# Mi

4-7-5-3-2-0
3----------
2----------
1----------

Un buen día que estaba con la azada,
vinieron unos hombres... le dijeron:
"Camarada, ya no hay amos a quien obedecer,
eres un hombre libre, tenemos el poder"

4----------7---7---7-5--------------
3-7---7---7--9---9-----7---7-7------
2---9---9----------------7-----9-9--
1-------------------------------9-9-

Piensa y piensa y piensa que te piensa
Iván que poco a poco va haciendose a la idea:
La nobleza ha sido derrocada,
ya no habrá pamplinas viviendo por la cara...

4-----------7-7-8-7-5---5-7--7-0--
3-7-5-7-9-7-----------7-----5---- x2
2--------------------------------
1--------------------------------


Allá estaba Iván
Allá estaba Iván
Allá estaba Iván

mi la do si
mi la do

si la sol fa# mi

4----------7---7---7-5--------------
3-7---7---7--9---9-----7---7-7------
2---9---9----------------7-----9-9--
1-------------------------------9-9-

4-----------7---7---7-5-------------
3-7---7---7---9---9-----7---7-7---7-
2---9---9-----------------7-----9---
1-----------------------------------

mi la do si
mi la do
do si la sol mi
Dando saltos a la pata coja,
la hoz y el martillito en la bandera roja
Con empeño y un poco de atención,
menudas volteretas que da la situación

4----------7---7---7-5--------------
3-7---7---7--9---9-----7---7-7------
2---9---9----------------7-----9-9--
1-------------------------------9-9-

¡Hurra!

(bueno mas o menos esta
para mi esta bien
yo la toco asi y suena muy bien
si les gusta puntuarla
agunte la polla la renga y los redondos
arriba un abrazo salut)
matiassellanes@

            
            
Suggest correction
Creating personal tab
Creating personal tab
You can edit any tab online and save it as your Personal.

You can edit, replace or remove any tab part or add personal notes – all changes will be seen only by you.

Personal tabs can be accessed anytime from any device, even offline.
Learn more »
Give kudos to tab author, rate the tab!
1 2 3 4 5
comments
print report bad tab
guest
Wanna post a correction for this tab? Suggest correction