Oops, an error
Loading. Please wait.

La Solución Final tab

365 views 9 this week
no commentswrite comment
1 2 3 4 5
3 more votes to show rating
add to favorites
×
Save as Personal and add changes to this tab that will be seen only by you. Learn more ›
×
You can save this tab as Personal to edit and correct it or add notes. All changes will be seen only by you. Learn more »
launch autoscroll
font size
0
reset
how to read this tab
guitar tuner
edit
Autoscroll
slow
fast
+/-
esc
set tempo
stop
+                     +
+   Wk PrOdUctIoNs    +
+                     +
+++++++++++++++++++++++


Intro :

E------------------------------------|
B------------------------------------|
G----------6-6-6---------------------|
D--2--2----6-6-6-----7-7-7---7-7-7---|
A--2--2----4-4-4-----7-7-7---7-7-7---|
E--0--0--------------9-9-9---9-9-9---|


Después de la intro :

E------------------------------|
B------------------------------|
G-----------------------6------|
D--7--9--9--9--9--7--6--6------|
A--7--9--9--9--9--7--6--4------|
E--5--7--7--7--7--5--4---------|


Como alcalde y buen burgués :

E---------|
B---------|
G----6----|
D----6----|
A----4----|
E---------|

Tu deber y tu misión es ha/

E---------|
B---------|
G---------|
D----7----|
A----7----|
E----5----|

/Cer un buen escaparate

E---------|
B---------|
G---------|
D----9----|
A----9----|
E----7----|

Para comerciar

E---------|
B---------|
G---------|
D----6----|
A----6----|
E----4----|

Se repite constantemente la misma secuencia de acordes.


Estribillo ( La solución es una cámara de gas...)

E-------------------------------------|
B-------------------------------------|
G-----------9---6-----------9---6-----|
D---7---9---9---6---7---9---9---6-----|
A---7---9---7---4---7---9---7---4-----|
E---5---7-----------5---7-------------|


Durante el solo, se acoplan los acordes de la intro.

Solo (2:05)

E-----------------------------------------------------------------|
B-----------------------------------------------------------------|
G--8-6-9-11-9-6-4-4-4--4-4-4---9-6-8-11-6-6-8/9-4-4-4--4-4-4------|
D-----------------------------------------------------------------|
A-----------------------------------------------------------------|
E-----------------------------------------------------------------|

Sigue el solo (2:15)

E--------------------------7---------------------------------------------7------------------|
B--9-10-9-7----9-10-9-7------9-10-9-7----------9-10-9-7-----9-10-9-7--------9-10-9-7--------|
G----------9-6---------9-6-----------9-6-4^--6----------9-6----------9-6-------------9-6-4^-|
D-------------------------------------------------------------------------------------------|
A-------------------------------------------------------------------------------------------|
E-------------------------------------------------------------------------------------------|

Y el final así (2:26)

E------------------------------------------|
B----7--9-9-9--9-7---7^----------7-7-------|
G--9----9-9-9------9-------9-6-9----9-6-4^-|
D------------------------------------------|
A------------------------------------------|
E------------------------------------------|


El solo creo que me ha quedado bien.
Es por lo que he tabulado la canción; lo demás ya lo teníamos.

Dedico el tab a todos mis colegas a los que tengo que hacer una mención obligada, 
en especial a los de DS, Javito, Tito y el incorporado Márquez.

Espero que les guste el tab. Se me olvidaba decirles que está sacado del directo 
de La Polla En Tu Recto.

Un saludo a todos y un llamamiento para que se tabulen más canciones de la Polla,
que faltan los solos.

Alguna duda o sugerencia : redinmyhead@

    	- Wk -

            
            
Suggest correction
Creating personal tab
Creating personal tab
You can edit any tab online and save it as your Personal.

You can edit, replace or remove any tab part or add personal notes – all changes will be seen only by you.

Personal tabs can be accessed anytime from any device, even offline.
Learn more »
Give kudos to tab author, rate the tab!
1 2 3 4 5
comments
print report bad tab
guest
Wanna post a correction for this tab? Suggest correction