Oops, an error
Loading. Please wait.

Sin Escrúpulos tab

13 views 1 this week
no commentswrite comment
1 2 3 4 5
3 more votes to show rating
add to favorites
×
Save as Personal and add changes to this tab that will be seen only by you. Learn more ›
×
You can save this tab as Personal to edit and correct it or add notes. All changes will be seen only by you. Learn more »
launch autoscroll
font size
0
reset
how to read this tab
guitar tuner
edit
Autoscroll
slow
fast
+/-
esc
set tempo
stop
Aki os dejo esta gran kanción del ultimo de la polla:


RIFF 1

E.--------------------------------------------------------------------------------------------
B.--------------------------------------------------------------------------------------------
G.--------------------------------------------------------------------------------------------
D.--------------------------------------------------------------------------------------------
A.----5---------------3----5---------------3---5---------------3---5---------------3----------
E.----3---3---3---3---1----3---3---3---3---1---3---3---3---3---1---3---3---3---3---1----------

RIFF 2

E.-------------------------------------------------------------------------------------------
B.-------------------------------------------------------------------------------------------
G.-----7-----------7----------7----------7---------------------------------------------------
D.-----7-----5-----7-----5----7----5-----7-----5---------------------------------------------
A.-----5-----5-----5-----5----5----5-----5-----5---------------------------------------------
E.-----------3-----------3---------3-----------3---------------------------------------------

RIFF 3

E.-------------------------------|-|-------------------------------------------------------
B.-------------------------------|-|-------------------------------------------------------
G.---5----9----10----------3-----|-|---x 4----------------------------------------------------
D.---5----9----10-----7----3-----|-|-----------------------------------------------------------
A.---3----7----8------7----1-----|-|----------------------------------------------------------
E.--------------------5----------|-|--------------------------------------------------------

ESTRUCTURA DE LA KANCIÓN

RIFF 1

RIFF 2______  Puedo aseguraros ke nadie nos va a joder, 
              Financiamos al gobierno y a la oposición, 
              Cualkiera ke gobierne tendrá el máximo Interés, 
              En dejarnos robar en paz

ESTRIBILLO_RIFF 3_ Si alguno se pone chulo,          
                   Golpe de estado, cambio de ley,---------- X 4 
                   Con la banca no se juega,
                   No se vacila con el poder, 


RIFF 2_  Pa ke no digais ke despreciamos a la gente, 
         Tambien los pobres tienen cuenta corriente,
         Aunke tengais poko seis millones de capullos,
         Asi va este xanxullo

RIFF 1_ Cobra tu nómina en nuestra ciudad, 
        Hazte un seguro de viudedad,
        Date un capricho con dinero rápido, 
        Solo keremos no estar feliz

RIFF 3_ESTRIBILLO

Si tu dinero es ilegal, máxima garantía
Armas, drogas, prostitución, no tenemos valías 

^^^^^^^^^^^^^^^^^^^^^^^^^^^^^^^^^^^^Mientras suena los ultimos 
versos de arriba eskritos es todo el rato esto

E.-------------
B.-------------
G.-----5-------
D.-----5-------
A.-----3-------
E.--------------

RIFF 2_Nuestros Son los medios de comunicación,
       Nuestros son los medios que fabrican tu opinión,
       Si buscas la justicia vete a ventanilla seis, 
       Ke allí te atiende el juez

RIFF 1_ Con nuestro fondo de pensiones, akabarás recogiendo kartones

RIFF 3_ESTRIBILLO

RIFF 1

FIN

Bueno aki está mi segunda kanción, espero ke la disfruteís: AGUR

            
            
Suggest correction
Creating personal tab
Creating personal tab
You can edit any tab online and save it as your Personal.

You can edit, replace or remove any tab part or add personal notes – all changes will be seen only by you.

Personal tabs can be accessed anytime from any device, even offline.
Learn more »
Give kudos to tab author, rate the tab!
1 2 3 4 5
comments
print report bad tab
guest
Wanna post a correction for this tab? Suggest correction